Song name
# A B C D E F G H I J K L M N O P Q R S T U V W X Y Z

Unwritten Law - Shoulda Known Better tab

Tabbed by:
Email:

Tuning:dadgbe

e|----------------------------------------------------------------|
B|----------------------------------------------------------------|
G|----14-14-14----14-14-14-----15-15-15----15-15-15-----16-16-16--|
D|----x--x--x-----x--x--x------x--x--x-----x--x--x------x--x--x---|
A|----12-12-12----12-12-12-----13-13-13----13-13-13-----14-14-14--|
D|--0-----------0-----------0------------0-----------0------------|

e|-------------------------------------------------|
B|-------------------------------------------------|
G|----16-16-16------15-15-15---15-15-15------------|
D|-----x--x--x------x--x--x----x--x--x---------x2--|
A|----14-14-14------13-13-13---13-13-13------------|
D|--0-------------0-----------0--------------------|
Tap to rate this tab
# A B C D E F G H I J K L M N O P Q R S T U V W X Y Z