Song name
# A B C D E F G H I J K L M N O P Q R S T U V W X Y Z

Up Dharma Down - Indak tab

Format: Lyrics then Tabs
Intro:

(2X)    
e|---2---5---|
B|---3---7---|
G|---4---6---| 
D|---4---7---|(Strum)
A|---2---5---|
E|---x---x---|

Verse:

Tatakbo at gagalaw
Mag-iisip kung dapat bang bumitaw
Kulang na lang, atakihin
Ang pag-hinga'y nabibitin

e|------------------------------------------------------|
B|------------------------------------------------------|
G|---4--4--4--4-4-4--4--4--4--6--6--6--6-6-6--6--6--6---|(Down Strum)
D|---4--4--4--4-4-4--4--4--4--7--7--7--7-7-7--7--7--7---|
A|---2--2--2--2-0-2--2--2--2--5--5--5--5\4/5--5--5--5---|
E|------------------------------------------------------|

e|---------------------------------------------|
B|---------------------------------------------|
G|---4--4--4--4-4-4--4--4--4--6--6--6--6-6-6---|(Down Strum)
D|---4--4--4--4-4-4--4--4--4--7--7--7--7-7-7---|
A|---2--2--2--2-0-2--2--2--2--5--5--5--5\4/5---|
E|---------------------------------------------|

Refrain:

Ang dahilang alam mo na
Kahit ano pang sabihin nila
Tayong dalawa lamang ang makakaalam
Ngunit ako ngayo'y naguguluhan

e|-------------------------------------------------------------------|
B|---------------------------------------------------------------6---|
G|---4--4--4--4-4-4--4--4--4--6--6--6--6--7--7--6--6--4--4--4--6-7---|(Down
D|---4--4--4--4-4-4--4--4--4--7--7--7--7--7--7--7--7--4--4--4--7-7---| Strum)
A|---2--2--2--2-0-2--2--2--2--5--5--4--4--x--x--7--7--2--2--2--5-x---|
E|----------------------------------------7--7--5--5-------------6---|

Chorus:

Makikinig ba ako
Sa aking isip na dati pa namang magulo?
O iindak na lamang
Sa tibok ng puso mo

At aasahan ko na lamang na
Hindi mo aapakan ang aking mga paa

(2X)
e|---2---5---|
B|---3---7---|
G|---4---6---| 
D|---4---7---|(strum)
A|---2---5---|
E|---x---x---|

Pipikit na lamang at mag-sasayaw

e|------------------|
B|--------------6---|
G|---4--4--4--6-7---| (Down Strum)
D|---4--4--4--7-7---|
A|---2--2--2--5-x---|
E|--------------6---|

Habang nanonood siya...(Do intro tabs.)

Verse:

Paalis at pabalik
May baong yakap at suklian ng halik
Mag-papaalam at mag-sisisi
Habang papiglas ka ako sayo ay tatabi

(2x)
e|------------------------------------------------------|
B|------------------------------------------------------|
G|---4--4--4--4-4-4--4--4--4--6--6--6--6-6-6--6--6--6---| (Down Strum)
D|---4--4--4--4-4-4--4--4--4--7--7--7--7-7-7--7--7--7---|
A|---2--2--2--2-0-2--2--2--2--5--5--5--5\4/5--5--5--5---|
E|------------------------------------------------------|

2nd Refrain:
Tayong dalawa lamang ang nakaka-alam
Ngunit hindi na matanto kung sino nga ba ang pag-bibigyan ko

e|-----------------------------------------------------|
B|-----------------------------------------------------|
G|---4--4--4--4-4-4--4--4--4--6--6--6--6--7--7--6--6---| (Down Strum)
D|---4--4--4--4-4-4--4--4--4--7--7--7--7--7--7--7--7---|
A|---2--2--2--2-0-2--2--2--2--5--5--4--4--x--x--7--7---|
E|----------------------------------------7--7--5--5---|

Makikinig nga ba sa isipan na alam ang wasto
Ngunit pipigilan ang pag-ibig nya na totoo

e|------------------------------------------------------|
B|------------------------------------------------------|
G|---4--4--4--4-4-4--4--4--4--6--6--6--6-6-6--6--6--6---| (Down Strum)
D|---4--4--4--4-4-4--4--4--4--7--7--7--7-7-7--7--7--7---|
A|---2--2--2--2-0-2--2--2--2--5--5--5--5\4/5--5--5--5---|
E|------------------------------------------------------|

Iindak na lamang ba sa tibok ng puso mo
At aasahan ko hindi nya lamang aapakan ang aking mga paa
Pipikit na lamang at mag-sasaya. . .

Habang nalulungkot ka
Pipikit na lamang at mag-sasaya
Habang nalulungkot ka


e|-----------------------------------------------|
B|-------------------------------------------6---| 
G|---4--4--4--4-4-4--4--4--4--6--6--7--6--4--7---| (Down Strum)
D|---4--4--4--4-4-4--4--4--4--7--7--7--7--4--7---| 
A|---2--2--2--2-0-2--2--2--2--5--4--x--7--2--x---| 
E|----------------------------------7--5-----6---| 
. . . 
(2X)
e|---2---5---|
B|---3---7---|
G|---4---6---| 
D|---4---7---|(Strum)
A|---2---5---|
E|---x---x---|

Ako'y Litong-lito
Tulungan niyo ako
Di ko na alam
Kung sino pang aking pagbibigyan o
Ayoko na ng ganito
Ako ay litong-lito ohwooh

e|------------------------------------------------------|
B|------------------------------------------------------|
G|---4--4--4--4-4-4--4--4--4--6--6--6--6-6-6--6--6--6---| (Down Strum)
D|---4--4--4--4-4-4--4--4--4--7--7--7--7-7-7--7--7--7---|
A|---2--2--2--2-0-2--2--2--2--5--5--5--5\4/5--5--5--5---|
E|------------------------------------------------------|

Enjoy!! :)
Tap to rate this tab
 
# A B C D E F G H I J K L M N O P Q R S T U V W X Y Z