Song name
# A B C D E F G H I J K L M N O P Q R S T U V W X Y Z

Up Dharma Down - Turn It Well tab

TURN IT WELL
UP DHARMA DOWN

STANDARD TUNING

INTRO: A-B-G-G 2X A-B-G 2X

|---------------------------------|  |---------------------------------|
|---------------------------------|  |---------------------------------|
|---------------------------------|2X|---------------------------------|2X
|---------------------------------|  |-----7-7-----7-7-----7-7-----7-7-|
|--7-7-7-7-9-9-9-9-5-5-5-5-5-5-5-5|  |--7-7-7-7-9-9-9-9-5-5-5-5-5-5-5-5|
|--5-5-5-5-7-7-7-7-3-3-3-3-3-3-3-3|  |--5-5-5-5-7-7-7-7-3-3-3-3-3-3-3-3|
             
DO CHORD PATTERN STANZA : A-B-G-G
Downtown I found myself calling in 
my very own white-washed breathing space
Dialliní the telephone night time 
morning sun out of place in our home
Sooner or later maybe we can suit up 
people on a table, flipping on the
Pages, just a little bit ahead of us, 
cover all my windows

RIFF:
|---------------------------------------|
|------------------------8--------------|  
|-------------7--7h9-6h7--7-6----6------|
|------7---7-9-9--------------7----7----|
|--0-0--0-0-----------------------------|
|---------------------------------------|

DO CHORD PATTERN : A-B-G-G
Do you need you take my youth to get 
the know how to turn it well
Fourthˇ days, fortnights all we have 
every little often so, take my
Hand to help you learn to turn it well, baby, 
maybe we could really turn it well
DO CHORD PATTERN : A-B-G-G

Take them frames off, turn your head, 
say it when my left ear needs it, no
Girl canˇ resist it, donít you hesitate, 
Sea Eyes baby you can turn it well

Do you need to change my youth to 
get the know how to turn it well
Maybe we can suit up and leave the 
photos home And Iíll walk you through
The woods, crossing fingers

Please rate! Thanks UG
Tap to rate this tab
# A B C D E F G H I J K L M N O P Q R S T U V W X Y Z