Song name
# A B C D E F G H I J K L M N O P Q R S T U V W X Y Z

Up For Grabs - Lonely tab

Help us improve GuitareTab! Take a short survey!
Artist: Up For Grabs
Deep Woods Recording INC.
Song: Lonely
Tabbed by:skye_08@hotmail.com

Intro 1st Time
e--------------------------------------------------3-----2-----0------
b------0-------------0--------------0----------------0-----0-----0---0
g--2-----2---2--2------2---2---2------2---2--2---------2-----2-----2--
d----------2-------------2--------------2-----------------------------
a----0-------------0-------------0--------------0---------------------
e---------------------------------------------------------------------

1st Verse
e-------------3-3-3-3----------------------!  Repeat 4x
b-------------3-3-3-3------------------1-1-!
g---2-2-2-2--------------2-2-2-2-2-2-------!
d---2-2-2-2--------------2-2-2-2-2-2---2-2-!
a-------------2-2-2-2------------------3-3-!
e-------------3-3-3-3----------------------!

Chorus
e-------------------------------------------------------------
b------------1-1-1-1-------------1-1-1-1-------------1-1-1-1--
g--1-1-1-1---2-2-2-2---1-1-1-1---2-2-2-2---1-1-1-1---2-2-2-2--
d--2-2-2-2---2-2-2-2---2-2-2-2---2-2-2-2---2-2-2-2---2-2-2-2--
a--2-2-2-2-------------2-2-2-2-------------2-2-2-2------------
e-------------------------------------------------------------

e------------1---2-2--------------!
b------------1-1-2-3--------------!
g--1-1-1-1---2-----2--------------!
d--2-2-2-2---3-2------------------!
a--2-2-2-2-----3-2----------------!
e----------------3----------------!

Intro 2nd Time
e--------------------------------------------------3-----2-----0------
b-------------------0--------------0----------------0-----0-----0---0-
g--2-----2---2--2------2---2---2------2---2--2---------2-----2-----2--
d----------2-------------2--------------2-----------------------------
a----0-0------------0-------------0--------------0--------------------
e---------------------------------------------------------------------

2nd Verse
e-------------3-3-3-3----------------------!  Repeat 4x
b-------------3-3-3-3------------------1-1-!
g---2-2-2-2--------------2-2-2-2-2-2-------!
d---2-2-2-2--------------2-2-2-2-2-2---2-2-!
a-------------2-2-2-2------------------3-3-!
e-------------3-3-3-3----------------------!

Chorus
e-------------------------------------------------------------
b------------1-1-1-1-------------1-1-1-1-------------1-1-1-1--
g--1-1-1-1---2-2-2-2---1-1-1-1---2-2-2-2---1-1-1-1---2-2-2-2--
d--2-2-2-2---2-2-2-2---2-2-2-2---2-2-2-2---2-2-2-2---2-2-2-2--
a--2-2-2-2-------------2-2-2-2-------------2-2-2-2------------
e-------------------------------------------------------------

e------------1---2-2--------------! Repeat 2x
b------------1-1-2-3--------------!
g--1-1-1-1---2-----2--------------!
d--2-2-2-2---3-2------------------!
a--2-2-2-2-----3-2----------------!
e----------------3----------------!

Intro Final Time
e--------------------------------------------------3-----2-----0------
b-------------------0--------------0----------------0-----0-----0---0-
g--2-----2---2--2------2---2---2------2---2--2---------2-----2-----2--
d----------2-------------2--------------2-----------------------------
a----0-0------------0-------------0--------------0--------------------
e---------------------------------------------------------------------

Repeat and fade out.
Hope you like it.
If you want the lyrics e-mail me.
Related for Lonely tab