Song name
# A B C D E F G H I J K L M N O P Q R S T U V W X Y Z

Uphill Gardeners - A Place For My Head tab

Uphill Gardeners	
A Place For My Head


E|----------------------------------|
B|----------------------------------|
G|----------------------------------|
D|-------8-8-8-9-6------------------|
A|-6-6--------------9-9-7-7-7-7-7-9-|
D|----------------------------------|               


REPEAT TILL AND OF CHORUS.
E|---------------------------------------------------------|
B|---------------------------------------------------------|
G|---------------------------------------------------------|
D|-13\1---------6-4-4-2-2-2h4--1----------6-4-4-2-2-2h4----|
A|-13\1---1h2-1-6-4-4-2-2-2h4--1----1h2-1-6-4-4-2-2-2h4----|
D|-13\1-1-------6-4-4-2-2-2h4--1-1--------6-4-4-2-2-2h4----|

PLAY THIS WHEN HE STARTS SCREAMING.
E|--------------------------------------------------------|
B|--------------------------------------------------------|
G|--------------------------------------------------------|
D|-1-1--1-1-1-1--1-1-1--1-1-1-1--4--1-1--1-1-1-1--1-1-1---|
A|-1-1--1-1-1-1--1-1-1--1-1-1-1--4--1-1--1-1-1-1--1-1-1---|
D|-1-1--1-1-1-1--1-1-1--1-1-1-1--4--1-1--1-1-1-1--1-1-1---|

E|-------------------------|
B|-------------------------|
G|-------------------------|
D|-1-1-1-1--6--1-1---------|
A|-1-1-1-1--6--1-1---------|
D|-1-1-1-1--6--1-1---------|
Tap to rate this tab
# A B C D E F G H I J K L M N O P Q R S T U V W X Y Z