Song name
# A B C D E F G H I J K L M N O P Q R S T U V W X Y Z

Uphill Gardeners - Up The Hole tab

Help us improve GuitareTab! Take a short survey!
-------------------------------------------------------------------------------
			     UP THE HOLE - The Uphill Gardeners
-------------------------------------------------------------------------------

By: a_breast_of_the_situation

The Uphill Gardners are a new rock band. I just heard them doing a local gig. 
Check out for them to make it to the big time soon . . 

Here's the intro to 'Up The Hole':

e|---------------------------------------------------------------------------|
B|---------------------------------------------------------------------------|
G|---7-7-7-7-7-7-7-7-7-7-7-7-7-7-7-7-7-7-7-7-7-7-7-7-------------------------|
D|---x-x-x-x-x-x-x-x-5-5-5-5-5-5-5-5-7-7-7-7-7-7-7-7-------------------------|
A|---5-5-5-5-5-5-5-5-5-5-5-5-5-5-5-5-5-5-5-5-5-5-5-5-------------------------|
E|---------------------------------------------------------------------------|

e|---------------------------------------------------------------------------|
B|---------------------------------------------------------------------------|
G|---7-7-7-7-7-7-7-7-7-7-7-7-7-7-7-7-----------------------------------------|
D|---5-5-5-5-5-5-5-5-7-7-7-7-7-7-7-7-----------------------------------------|
A|---5-5-5-5-5-5-5-5-5-5-5-5-5-5-5-5-----------------------------------------|
E|---------------------------------------------------------------------------|

Just repeat this 4 times and there you have it !!!

===============================================================================
Related for Up The Hole tab