Song name
# A B C D E F G H I J K L M N O P Q R S T U V W X Y Z

Uphill Gardeners - One Way tab

-------------------------------------------------------------------------------
			     ONE WAY - The Uphill Gardeners
-------------------------------------------------------------------------------

By: colorado25

 

Here's the solo to 'Up The Hole':

e|-----------------------------------------------|
B|-------5--5--7---------------------------------|
G|----------------7-7---7---4h7------------------|
D|-----------------------------------------------|
A|-----------------------------------------------|
E|-----------------------------------------------|

e|-----------------------------------------------|
B|-------5-5---7-------5--5--7-------------------|
G|----------------7--------------7-7-7-7---7\6---|
D|-----------------------------------------------|
A|-----------------------------------------------|
E|-----------------------------------------------|

This is a sweet solo if played right

===============================================================================
Tap to rate this tab
# A B C D E F G H I J K L M N O P Q R S T U V W X Y Z