Song name
# A B C D E F G H I J K L M N O P Q R S T U V W X Y Z

Uphill Gardeners - 9 Pm tab

-------------------------------------------------------------------------------
			     9 PM (Till We Cum) -  Uphill Gardeners
-------------------------------------------------------------------------------

By:colorado25


Intro:
e|------------------------------------------|
B|------------------------------------------|
G|------------------------------------------|
D|--2-2-2-2--5-5--10-----2-2-2-2--5-5--10---|
A|--2-2-2-2--5-5--10-----2-2-2-2--5-5--10---|
E|--2-2-2-2--5-5--10-----2-2-2-2--5-5--10---|

Verse:
e|------------------------------------------|
B|------------------------------------------|
G|--8-8-8-8-6-6-6-6-------------------------|
D|--8-8-8-8-6-6-6-6--8--4--4----------------| x3
A|--6-6-6-6-4-4-4-4--8--4--4----------------|
E|-------------------6--4--2----------------|

Verse (4th time):
e|------------------------------------------|
B|------------------------------------------|
G|--8-8-8-8-6-6-6-6-------------------------|
D|--8-8-8-8-6-6-6-6--8--4--3----------------| x1
A|--6-6-6-6-4-4-4-4--8--4--3----------------|
E|-------------------6--4--1----------------|

Chorus:
e|------------------------------------------|
B|------------------------------------------|
G|------------------------------------------|
D|--3-3--1-1-6-6-8-10--10-10-10-------------| x6
A|--3-3--1-1-6-6-8-10--10-10-10-------------|
E|--3-3--1-1-6-6-8-10--10-10-10-------------|

Thankyou fans, I'm too good
PS: Blair prefers the Stains

===============================================================================
Tap to rate this tab
# A B C D E F G H I J K L M N O P Q R S T U V W X Y Z