Song name
# A B C D E F G H I J K L M N O P Q R S T U V W X Y Z

Uphill Gardeners - The Joy Of Bending tab

Band Name - Uphill Gardeners
Song Title - The Joy of Bending

Tabbed by - colorado25

For this track, Berty, the lead guitarist, uses a four-string 
guitar of his own practical design . . 


Intro:
|------10-----10------|
|----7----7------7----|
|--0--------0------0--| x4
|---------------------|

Verses:
|--0--0--0--0---0--0--0--0---0--0--0--0---0--0--0--0--|
|--2--2--2--2---0--0--0--0---2--2--2--2---2--2--2--2--|
|--3--3--3--3---3--3--3--3---3--3--3--3---3--3--3--3--|
|--2--2--2--2---0--0--0--0---2--2--2--2---3--3--3--3--|

Chorus:
|--0-0-0-0-0-0-0-0-2-2-2-2-0-0-0-0--|
|--2-2-2-1-2-2-2-1-2-2-2-1-2-2-2-1--|
|--2-3-2-2-2-3-2-2-2-3-2-2-2-3-2-2--|
|--2-2-2-2-2-2-2-2-2-2-2-2-2-2-2-2--|

Outro:
|------10-----10------|
|----7----7------7----|
|--0--------0------0--| x4
|---------------------|

Order:
Intro x4
Verse
Chorus x2
Verse
Chorus x2
Verse
Chorus x4
Outro x4

Chorus Lyrics:
Bend me, bend me now mike
Bend me, you know i want it
Bend me, bend me now mike
Bend me, you know i want you

That's about as much as I know for this song. The chorus is tricky but
you'll get it eventually!!!  :)
Tap to rate this tab
# A B C D E F G H I J K L M N O P Q R S T U V W X Y Z