Song name
# A B C D E F G H I J K L M N O P Q R S T U V W X Y Z

Uphill Gardeners - Groin Lovers Anonymous tab

Band Name - Uphill Gardeners
Song Title - Groin Lovers Anonymous


Intro:
|-------------------------|
|--8---8---8---8---8---6--|
|----7---7---7---7---5----|
|-------------------------| x4
|-------------------------|
|-------------------------|

Verse/s:
|--0--0----------0--0--|
|--0--2----------0--2--|
|--1--2----------1--2--|
|--2--2-6--5--6--2--2--|
|--2--0-6--5--6--2--0--|
|--0--0-6--5--6--0--0--|

Chorus:
|--------21----------------21-------|
|-----19----19----19----19---19-----|
|--20----------20----20---------20--|
|-----------------------------------|
|-----------------------------------|
|-----------------------------------|

thats about it folks!!! enjoy!
PS Go STIANS
Tap to rate this tab
 
# A B C D E F G H I J K L M N O P Q R S T U V W X Y Z