Song name
# A B C D E F G H I J K L M N O P Q R S T U V W X Y Z

Uphill Gardeners - Hard On tab

-------------------------------------------------------------------------------
			     HARD ON - Uphill Gardeners
-------------------------------------------------------------------------------

By: colorado25


Intro:
e|---------------------------------------------|
B|---------------------------------------------|
G|--------11-------9-------11-------9\7--------|
D|--7-8-9----7-8-9---7-8-9----7-8-9------------|
A|---------------------------------------------|
E|---------------------------------------------|

Verse:
e|-------------------------------|
B|-------------------------------|
G|-------------------------------|
D|--2-2-2-2-4-4\3-3-3--7-7-7-7---|
A|--2-2-2-2-4-4\3-3-3--7-7-7-7---|
E|--2-2-2-2-4-4\3-3-3--7-7-7-7---|

Chorus:
e|--------0-------0--------0-----0-----|
B|--------0-------0--------0-----0-----|
G|--------0-------0--------0-----0-----|
D|--7-7-7-7-7-7-7-7--9-9-9-9-9-9-9-14--|
A|--7-7-7-7-7-7-7-7--9-9-9-9-9-9-9-14--|
E|--5-5-5-5-5-5-5-5--7-7-7-7-7-7-7-12--|

It is a great song, have fun playing it!!!

===============================================================================
Tap to rate this tab
# A B C D E F G H I J K L M N O P Q R S T U V W X Y Z