Guitaretab - guitar tabs
Song name
# A B C D E F G H I J K L M N O P Q R S T U V W X Y Z

Uphill Gardeners - 69 tab

Band : Uphill Gardeners
Song : 69
Tabbed By:  Lighty Swales
Tuning:  Standard

The other version of this song was useless, they must have tabbed the wrong song
or something. This is definately the CORRECT version of this song.



Intro / Verse:

|-----------------------------|
|-------4---------------------|
|-5-----------3-----3-----5---|
|-----------------------------|
|---3-3---3-3---3-3---3-3---3-|
|-----------------------------|

2nd Guitar (Chords):

|---|------------|
|---|------------|
|-5-|-----8--5-5-|
|-5-|-10--8--5-5-|
|-3-|-8---6--3-3-|
|-3-|-8---6--3-3-|

Chorus (Chords):


|-------------|--------------|
|-------------|--------------|
|-------------|-----5------8-|
|-x-x-x-x-x-x-|-10--5--10--8-|
|-x-x-x-x-x-x-|-8---3--8---6-|
|-x-x-x-x-x-x-|-8---3--8---6-|

Interlude:
[ Tab from: http://www.guitaretab.com/u/uphill-gardeners/29343.html ]
|-----------------------|------------------------------------------------|
|-----------------------|------------------------------------------------|
|-----------------------|------------------------------------------------|
|-------8--------8/10/8-|------------13/12-12--12-12/10-10--10-10/8-8--x-|
|---6--------6----------|-------10---11/10-10--10-10/8--8---8--8-/6-6--x-|
|-6---6----6---6--------|-6/8-8----8-11/10-10--10-10/8--8---8--8-/6-6--x-|

|-----------------------|-----------------------------------------------|
|-----------------------|-----------------------------------------------|
|-----------------------|-----------------------------------------------|
|-------8--------8/10/8-|------------13/12-12--12-12/10-8--8-8/10-10--x-|
|---6--------6----------|-------10---11/10-10--10-10/8--6--6-6/8--8---x-|
|-6---6----6---6--------|-6/8-8----8-11/10-10--10-10/8--6--6-6/8--8---x-|

Interlude 2:

x8          x4          x2
|-----------|-----------|-----------|
|-----------|-----------|-----------|
|-----------|---------8-|-----------|
|-----8---8-|-----8-----|-----8---8-|
|---6---6---|---6---6---|---6---6---|
|-6---------|-6---------|-6---------|

|-------------|
|-------------|
|-------------|
|-8-x-x-x-x-8-|
|-6-x-x-x-x-6-|
|-6-x-x-x-x-6-|

Outro:

|----------|
|----------|
|-8--5-----|
|-8--5--10-|
|-6--3--8--|
|-6--3--8--|


thank you all for your time
".... not the brightest candle on the cake"
Related for 69 tab
69 chords by Uphill Gardeners