Song name
# A B C D E F G H I J K L M N O P Q R S T U V W X Y Z

Uphill Gardeners - Foreskin tab

Band Name - Uphill Gardeners
Song Title - Foreskin

Chorus Lyrics:
You are my foreskin, my only foreskin
You make me happy,
When there's no Davey,
Please don't take, my foreskin, away
  

Chorus:
|-----------------------------------|
|-----------------------------------|
|----------7-7-7-8---------7-7-7-8--|
|--2-2-2-3-7-7-7-8-2-2-2-3-7-7-7-8--| x6
|--2-2-2-3-5-5-5-6-2-2-2-3-5-5-5-6--|
|--2-2-2-3---------2-2-2-3----------|

Solo:
|-------------------------14/13-10h12------------|
|--7/8--8/10--10/12-12-12-------------12\10\8\7--|
|------------------------------------------------|
|------------------------------------------------|
|------------------------------------------------|
|------------------------------------------------|
Tap to rate this tab
# A B C D E F G H I J K L M N O P Q R S T U V W X Y Z