Song name
# A B C D E F G H I J K L M N O P Q R S T U V W X Y Z

Uphill Gardeners - I Love My Crotch tab

SOLO
e|--7h8-7h8-7h8-------------------------------------------7---------------------
B|--------------10b(12)r10p7----------------------10b(12)--10b(12)r10p7---------
G|---------------------------/9~-9\7-7~--12-11-9\7------------------------9b(11)
D|------------------------------------------------------------------------------
A|------------------------------------------------------------------------------
E|------------------------------------------------------------------------------

e|---------7--------------------------------------------------------------------
B|-10b(12)---10b(12)-7-10~~-10~--12---------------------------------------------
G|-------------------------------12b(14)-11----9-11-12~-------------------------
D|------------------------------------------12---------12h14-10h12-9h10-7h9p7\5-
A|------------------------------------------------------------------------------
E|------------------------------------------------------------------------------

e|-----------------------------------------------
B|-----------------------------------------------
G|-----------------------------------------12~~~-
D|----------7---7-9-9/11-11/12-12/14-14/15-15~~~-
A|--/9~-7-9---9----------------------------------
E|-----------------------------------------------
Tap to rate this tab
# A B C D E F G H I J K L M N O P Q R S T U V W X Y Z