Song name
# A B C D E F G H I J K L M N O P Q R S T U V W X Y Z

Uphill Gardeners - Pack My Fudge tab

Tabbed By: stiaa-stow-stuu-stee-stiddely-stay

here are the tabs to "Pack My Fudge" by the Uphill Gardeners

Intro, "Lightly Palm Mute"
D||---------------------------|
A||---------------------------|
F||---------------------------|
C||---------------------------|
G||---------------------------|
C||-0-4-0-1--1-1-0------------|

Verse Prt1 
(This is played before most of the verses, listen to the song)
D||---------------------------|
A||---------------------------|
F||---------------------------|
C||-0-8-8-8-7-----------------|
G||-0-8-8-8-7-----------------|
C||-0-8-8-8-7-----------------|

Verse
D||---------------------------|
A||---------------------------|
F||---------------------------|
C||-0-4-0-1--1-1-0------------|
G||-0-4-0-1--1-1-0------------|
C||-0-4-0-1--1-1-0------------|

Bridge 
(Little Part you can hear in part of the song)
D||---------------------------|
A||---------------------------|
F||---------------------------|
C||-0-0-0-0-3-----------------|
G||-0-0-0-0-3-----------------|
C||-0-0-0-0-3-----------------|	

Solo
(I'm not sure if this is 100% correct but never mind)
D||------------7/9h10--13-12-13b15r13-13p12-----------|
A||------9p7p5------------------------------9p7-------|
F||-7b9r----------------------------------------9p7~--|
C||---------------------------------------------------|
G||---------------------------------------------------|
C||---------------------------------------------------|

well thats about it. not sure on the playing order yet.
Tap to rate this tab
# A B C D E F G H I J K L M N O P Q R S T U V W X Y Z