Upon A Burning Body - Showtime tab

SOOO im pretty stoked that im the first person to
put a UABB song on here :D
yayy!

(Not 100% right by any means, but its here for you
as a base to work from)

well here we go!

DROP A# TUNING:
Bb F Bb Eb G C

||---------------------------------------|
||---------------------------------------|
||--7--5--2-3-2----4--3-2-3-2------------|
||--x--x--x-x-x----x--x-x-x-x------------|
||--5--3--0-1-0----2--1-0-1-0------------|
||---------------3-----------------------|


            WELCOME TO THE FAMILY!

||---------------------------------------|
||---------------------------------------|
||---------------------------------------|
||---------------------------------------|
||-000-0-00-0-0-000-00-0-0-000-000-------|
||-000-0-00-0-0-000-00-0-0-000-000-------|

||---------------------------------------|
||---------------------------------------|
||---------------------------------------|
||---------------------------------------|
||-00----00----00---00----00---00--------|
||-00-00-00-00-00-0-00-00-00-0-00-0------|

||---------------------------------------|
||---------------------------------------|
||---------------------------------------|
||---------------------------------------|
||-00----00----00---000-000-00000--------|
||-00-00-00-00-00-0-000-000-00000--------|

||---------------------------------------|
||---------------------------------------|
||-7--15/14--9/10-10/9--19-21/22---------|
||-x---x--x--x--x--x-x---x--x--x---------|
||-5--13/12--7/-8--8/7--17-19/20---------|
||---------------------------------------|

||---------------------------------------|
||---------------------------------------|
||---------------------------------------|
||--0~-----------------------------------|
||--0~-----------------------------------|
||--0~-----------------------------------|


Thank ya :)
rate and comment please!
Tap to rate this tab
 
# A B C D E F G H I J K L M N O P Q R S T U V W X Y Z