Song name
# A B C D E F G H I J K L M N O P Q R S T U V W X Y Z

Upper Class Trash - We Add Like Crazy Wizards tab

e|-------------------------------------|
B|-------------------------------------|
G|--------22-------55----------22------|  x4
D|-0-00-33----00-33----0--00-33--0--00-|
A|-0-------------------0------------00-|
D|-0-------------------0------------00-|


e|-----------------------|----------------|-----------------------|-------|
B|-----------------------|----------------|-----------------------|-------|
G|--10-12-14---10-12-14--|------99---- x4-|--10-12-14---10-12-14--|--7-6--|
D|--x--x--x----x--x--x---|----77--10------|--x--x--x----x--x--x---|--x-x--|
A|--8--10-12---8--10-12--|--88------------|--8--10-12---8--10-12--|--5-4--|
D|-----------------------|----------------|-----------------------|-------|
Tap to rate this tab
 
# A B C D E F G H I J K L M N O P Q R S T U V W X Y Z