Song name
# A B C D E F G H I J K L M N O P Q R S T U V W X Y Z

Uprising Angels - Incoming Invasion tab

Verse1(Clean)

x-x-7-x-7-x--x-x-x-x-x-5-x-5-x--x-x-x-x-x-x-7-x-7-x-x-x-5-x-5-x-x-x-3-x-3-x-|
x-x---x---x--x-x-x-x-x---x---x--x-x-x-x-x-x---x---x-x-x---x---x-x-x---x---x-|
7-7---7---7--7-7-7-7-5---5---5--5-5-5-5-7-7---7---7-5-5---5---5-3-3---3---3-|
9-9---9---9--9-9-9-9-7---7---7--7-7-7-7-9-9---9---9-7-7---7---7-5-5---5---5-|
9-9---9---9--9-9-9-9-7---7---7--7-7-7-7-9-9---9---9-7-7---7---7-5-5---5---5-|
7-7---7---7--7-7-7-7-5---5---5--5-5-5-5-7-7---7---7-5-5---5---5-3-3---3---3-|



x-x-x-x-x-x-----------|
x-x-x-x-x-x-----------|
1-1-1-1-1-1-----------|
3-3-3-3-3-3-0-3-0-3-3-|
3-3-3-3-3-3-0-3-0-3-3-|
1-1-1-1-1-1-0-1-0-1-1-|



Chorus1(overdrive)

----------------------------------------------------|
----------------------------------------------------|
----------------------------------------------------|
----------------------------------------------------|
3-5-3-3-5-3-3-5-3-5-3-5-3-3-5-3-5-3-5-5-7-7-7-5-7-5-|
3-5-3-3-5-3-3-5-3-5-3-5-3-3-5-3-5-3-5-5-7-7-7-5-7-5-|



Solo(overdrive)

--------------------------------------------------------------------------|
12-14-16-14-12-12-14-16-16-14-12-10-8-16-14-12----------14-14-12-12-10-10-|
-----------------------------------------------9-9-9-9-12-----------------|
--------------------------------------------------------------------------|
--------------------------------------------------------------------------|
--------------------------------------------------------------------------|




--------------------------------------------------------------------------|
14-14-12-12-10-10-14-14-12-12-10-10--------------12-----------------------|
-----------------------------------9-10-9-10-9-10-------------------------|
--------------------------------------------------------------------------|
--------------------------------------------------------------------------|
--------------------------------------------------------------------------|




Verse2(Clean+Overdrive)
(Clean)
---------------------------------------------------------------------------|
---------------------------------------------------------------------------|
---------------------------------------------------------------------------|
--5-5-5--7-7-7(let it ring)------------------------------------------------|
-5-5-5--7-7-7(let it ring)-------------------------------------------------|
5-5-5--7-7-7(let it ring)--------------------------------------------------|



(Overdrive)

x-x-7-x-7-x--x-x-x-x-x-5-x-5-x--x-x-x-x-x-x-7-x-7-x-x-x-5-x-5-x-x-x-3-x-3-x-|
x-x---x---x--x-x-x-x-x---x---x--x-x-x-x-x-x---x---x-x-x---x---x-x-x---x---x-|
7-7---7---7--7-7-7-7-5---5---5--5-5-5-5-7-7---7---7-5-5---5---5-3-3---3---3-|
9-9---9---9--9-9-9-9-7---7---7--7-7-7-7-9-9---9---9-7-7---7---7-5-5---5---5-|
9-9---9---9--9-9-9-9-7---7---7--7-7-7-7-9-9---9---9-7-7---7---7-5-5---5---5-|
7-7---7---7--7-7-7-7-5---5---5--5-5-5-5-7-7---7---7-5-5---5---5-3-3---3---3-|



x-x-x-x-x-x-----------|
x-x-x-x-x-x-----------|
1-1-1-1-1-1-----------|
3-3-3-3-3-3-0-3-0-3-3-|
3-3-3-3-3-3-0-3-0-3-3-|
1-1-1-1-1-1-0-1-0-1-1-|




Chorus2(Clean+Overdrive)


(Clean)
----------------------------------------------------|
----------------------------------------------------|
----------------------------------------------------|
----------------------------------------------------|
3-5-3-3-5-3-3-5-3-5-3-5-3-3-5-3-5-3-5-5-7-7-7-5-7-5-|
3-5-3-3-5-3-3-5-3-5-3-5-3-3-5-3-5-3-5-5-7-7-7-5-7-5-|

(Overdrive)
-----------|
-----------|
1----------|
2----------|
2----------|
0----------|

--------------------------END---------------------------------
http://uprisingangels.weebly.com/
Hope you enjoy
Your opinion is very important for us because its our first job as a band.Please contact 
us at papalimneoskomninos@gmail.com for comments about our job:)
Tap to rate this tab
# A B C D E F G H I J K L M N O P Q R S T U V W X Y Z