Guitaretab - guitar tabs
Song name
# A B C D E F G H I J K L M N O P Q R S T U V W X Y Z

Urban Cone - Black Ocean tab

Hey everyone!

I really like this song and decided to write it down! I'm pretty sure it's all accurate,
if not feel free to contact me. Have fun! :)

Chords used:
A
Dmaj9
F#m7
E


e|---------------------------------0---|-------------------------------------|
B|-------0-------0--------0-----2------|-------2--------2--------2--------2--|
G|----2-------4--------6---------------|----2--------2--------2--------2-----|
D|-4-------6--------7--------0---------|-------------------------------------|
A|-------------------------------------|-0--------0--------0--------0--------|
E|-------------------------------------|-------------------------------------|

e|-------------------------------------|-------0--------0--------0--------0--|
B|-------0--------0---------0--------2-|----2--------2--------2--------2-----|
G|----6--------4---------9--------2----|-------------------------------------|
D|-7--------6--------11--------2-------|-0--------0--------0--------0--------|
A|-------------------------------------|-------------------------------------|
E|-------------------------------------|-------------------------------------|


e|-------0--------0--------0----------|---------------------------------0----|
B|----2--------2--------2--------2----|-------0-------0--------0-----2-------|
G|----------------------------------4-|----2-------4--------6----------------|
D|-0--------0--------0--------0-------|-4-------6--------7--------0----------|
A|------------------------------------|--------------------------------------|
E|------------------------------------|--------------------------------------|              
                                        Don't be scared, you'll -
                                           

e|-------------------------------------|-------------------------------------|
B|-------2--------2--------2--------2--|-------0--------0---------0--------2-|
G|----2--------2--------2--------2-----|----6--------4---------9--------2----|
D|-------------------------------------|-7--------6--------11--------2-------|
A|-0--------0--------0--------0--------|-------------------------------------|
E|-------------------------------------|-------------------------------------|
  make it through.                      Clean your dirty -


e|-------0--------0--------0----------|---------------------------------0----|
B|----2--------2--------2--------2----|-------0-------0--------0-----2-------|
G|----------------------------------4-|----2-------4--------6----------------|
D|-0--------0--------0--------0-------|-4-------6--------7--------0----------|
A|------------------------------------|--------------------------------------|
E|------------------------------------|--------------------------------------|
  wounds.                              Tears will fall like -

[ Tab from: http://www.guitaretab.com/u/urban-cone/317759.html ]
e|-------------------------------------|-------------------------------------|
B|-------2--------2--------2--------2--|-------0--------0---------0--------2-|
G|----2--------2--------2--------2-----|----6--------4---------9--------2----|
D|-------------------------------------|-7--------6--------11--------2-------|
A|-0--------0--------0--------0--------|-------------------------------------|
E|-------------------------------------|-------------------------------------|
  lemon drops.                          And split your heart in -


e|-------0--------0--------0--------0-|-------0--------0--------0------------|
B|----2--------2--------2--------2----|----2--------2--------2--------2------|
G|------------------------------------|----------------------------------4---|
D|-0--------0--------0--------0-------|-0--------0--------0--------0---------|
A|------------------------------------|--------------------------------------|
E|------------------------------------|--------------------------------------|
  two.                                  


e|---------------------------------0---|-------------------------------------|
B|-------0-------0--------0-----2------|-------2--------2--------2--------2--|
G|----2-------4--------6---------------|----2--------2--------2--------2-----|
D|-4-------6--------7--------0---------|-------------------------------------|
A|-------------------------------------|-0--------0--------0--------0--------|
E|-------------------------------------|-------------------------------------|
  We will dive into                     the black ocean, -

e|-------0--------0--------0--------0-|-------0--------0--------0--------0---|
B|----2--------2--------2--------2----|----2--------2--------2--------2------|
G|------------------------------------|--------------------------------------|
D|-0--------0--------0--------0-------|-2--------2--------2--------2---------|
A|------------------------------------|--------------------------------------|
E|------------------------------------|--------------------------------------|
  Into the black ocean,                Into the black ocean

e|-------0--------0--------0--------0-|--------------------------------------|
B|----2--------2--------2--------2----|-------5--------5--------5--------5---|
G|------------------------------------|----6--------6--------6--------6------|
D|-3--------3--------3--------3-------|-7--------7--------7--------7---------|
A|------------------------------------|--------------------------------------|
E|------------------------------------|--------------------------------------|
  Into the black ocean     And swim away.                

e|--------------------------------------|------------------------------------|
B|-------5--------5--------5--------5---|-------5--------5--------5--------5-|
G|----6--------6--------6--------6------|----6--------6--------6--------6----|
D|-7--------7--------7--------7---------|-7--------7--------7--------7-------|
A|--------------------------------------|------------------------------------|
E|--------------------------------------|------------------------------------|


e|------------------|
B|-------5--------5-|
G|----6--------6----|
D|-7--------7-------|
A|------------------|
E|------------------|


A            Dmaj9
Oh no no no, Oh no no no [x4]
A                                     Dmaj9
Oh no no no There's no time for love, Oh no no no There's no time for love [x8]
F#m7         E
Oh no no no, Oh no no no
Dmaj9
Oh no no no [x2]
A          Dmaj9
Oh no no no, Oh no no no [x2]
F#m7         E
Oh no no no, Oh no no no
Dmaj9        Dmaj9
Oh no no no, Oh no no no

Urban Cone official facebook: www.facebook.com/urbancone
Related for Black Ocean tab
Black Ocean chords by Urban Cone