Song name
# A B C D E F G H I J K L M N O P Q R S T U V W X Y Z

Urban Dub - Gravity tab

Urbandub - Gravity

Tabbed by Francis J.Q.Sario
09283150081
loc-Lucena City
email(fb,fs)- f_sario@yahoo.com

Tuning Drop C #

Gtr I - John 
GtrII - Gabby 
Bass(5string)- Lalay

* - Palm mute
/ - slide
h - hammer on
+ - harmonic 
x -  dead note
^ or b - bend
Intro-
1.0:00
Bass
Gb|-----------------------------------------------|
Db|-----------------------------------------------|
Ab|------------15----------12---------------------|4x
C#|-0-0-15-0-0----0-0-15-0----0-10-10-10h12-------|
Bb|-----------------------------------------------|

2.Drum enters 0:17
Bass
Gb|-----------------------------------------------|
Db|-----------------------------------------------|
Ab|------------15----------12---------------------|4x
C#|-0-0-15-0-0----0-0-15-0----0-10-10-10h12-------|
Bb|-----------------------------------------------|

GtrI 0:18(with efx)
eb|---------------------------------------------------------------------------|
bb|-------------------------------------------------------------------7+~-----|
gb|-----7+~-------------------------------------------------------------------|
Db|---------------------------------------------------------------------------|
Ab|---------------------------------------------------------------------------|
C#|---------------------------------------------------------------------------|

Verse-

GtrII O:28-0:47
eb|-----------------------------------------------------------------|
bb|-----------------------------------------------------------------|
gb|-----------------------------------------------------------------|
Db|-0~--0~--0~--0~--0~--0~--0~--0~--0~--0~--0~--0~--0~--0~--0~--0~--|
Ab|-0~--0~--0~--0~--0~--0~--0~--0~--0~--0~--0~--0~--0~--0~--0~--0~--|
C#|-0~--0~--0~--0~--0~--0~--0~--0~--0~--0~--0~--0~--0~--0~--0~--0~--|

GtrI 0:30
eb|---------------------------------------------------------------------------|
bb|-------------------------------------------------------------------7+~-----|
gb|-----7+~-------------------------------------------------------------------|
Db|---------------------------------------------------------------------------|
Ab|---------------------------------------------------------------------------|
C#|---------------------------------------------------------------------------|

GtrI 0:38
eb|-----------------------------------------------|
bb|-----------------------------------------------|
gb|-----------------------------------------------|
Db|-----------------------------------------------|
Ab|------------15----------12---------------------|4x
C#|-0-0-15-0-0----0-0-15-0----0-10-10-10h12-------|
    * *    * *    * *    *    *

PreChorus-
Gtrs
eb|-----------------------------------------------------------------------|
bb|-----------------------------------------------------------------------|
gb|------10-----9-----9----------------------10-----9-----9---------------|
Db|------8------8-----10---------------------8------8-----10--------------|
Ab|-------------------------10---10h12---------------------------10--1010-|
C#|-8888-----88----8-----88-8--8-8------8888-----88----8-----88-8--8-8-8--|
    ****     **    *     ** *  * *      ****     **    *     ** *  * 

Bass
Gb|-----------------------------------------------|
Db|-----------------------------------------------|
Ab|-----------------------------------------------|
C#|-8-8-8-8-8-8-8-8-8-8-8-8-8-8-8-8-8-8-8-8-8-8-8-|
Bb|-----------------------------------------------|

Chorus
GtrII
eb|----------------------------------------------------------------------|
bb|----------------------------------------------------------------------|
gb|-5-5-5-5-5-5-5-5-5-5-5-5-5-5-5-5-9-9-9-9-9-9-9-9-9-9-9-9-9-9-9-9------|
Db|-5-5-5-5-5-5-5-5-5-5-5-5-5-5-5-5-9-9-9-9-9-9-9-9-9-9-9-9-9-9-9-9------|2x
Ab|-3-3-3-3-3-3-3-3-3-3-3-3-3-3-3-3-7-7-7-7-7-7-7-7-7-7-7-7-7-7-7-7------|
C#|-3-3-3-3-3-3-3-3-3-3-3-3-3-3-3-3-7-7-7-7-7-7-7-7-7-7-7-7-7-7-7-7------|

GtrI
eb|----------------------------------------------------------------------|
bb|----------------------------------------------------------------------|
gb|-5-5-5-5-5-5-5-5-5-5-5-5-5-5-5-5-9-9-9-9-9-9-9-9-9-9-9-9-9-9-9-9------|
Db|-5-------------------------------9------------------------------------|
Ab|-3-3-3-3-3-3-3-3-3-3-3-3-3-3-3-3-7-7-7-7-7-7-7-7-7-7-7-7-7-7-7-7------|
C#|-3-------------------------------7------------------------------------|

eb|-----------------------------------------|--------------------------------|
bb|-----------------------------------------|--------------------------------|
gb|-5-55--9-9--1010--12-12-12-12-1414141414-|-99-9-9/10\9--9-9/10\9-9-9/10\9-|
Db|-5---------------------------------------|--------------------------------|
Ab|-3-33--7-7--8--8--10-10-10-10-1212121212-|-77-7-7/8-\7--7-7/8-\7-7-7/8-\7-|
C#|-3---------------------------------------|--------------------------------|


Verse-

GtrI
eb|---------------------------------------------------------------------------|
bb|---------------------------------------------------------------------------|
gb|---------------------------------------------------------------------------|
Db|-0~------------------------------------------------------------------------|
Ab|-0~------------------------------------------------------------------------|
C#|-0~------------------------------------------------------------------------|


GtrI 1:19
eb|---------------------------------------------------------------------------|
bb|--------------------------------------------------------------------------|
gb|-----7+~-------------------------------------------------------------------|
Db|---------------------------------------------------------------------------|
Ab|---------------------------------------------------------------------------|
C#|---------------------------------------------------------------------------|

GtrI 1:23
eb|-----------------------------------------------|
bb|-----------------------------------------------|
gb|-----------------------------------------------|
Db|-----------------------------------------------|
Ab|------------15----------12---------------------|4x
C#|-0-0-15-0-0----0-0-15-0----0-10-10-10h12-------|
    * *    * *    * *    *    *

Repeat Prechorus
then Chorus


Bridge-
GtrII Dm 4x Em 2x Dm 4x
GtrI
eb|-7~--5-6-6/8-6-5----------------------5~----5-6-6/8-6-5-------------------|
bb|-6~----------------6/8---6~-----------6~-----------------6--8~------------|
gb|-7~-----------------------------------7~----------------------------------|
Db|-7~-----------------------------------7~----------------------------------|
Ab|-5~-----------------------------------5~----------------------------------|
C#|--------------------------------------------------------------------------|

eb|-7~------------------------------------5~----------------------------------|
bb|-6~------------------------------------6~----------------------------------|
gb|-7~------------------------------------7~----------------------------------|
Db|-7~------------------------------------7~----------------------------------|2x
Ab|-5~------------------------------------5~----------------------------------|
C#|---------------------------------------------------------------------------|

2:19
eb|-7~----------7--------------------7-----------------------------------|
bb|-8~-------------8--------------------8--------------------------------|
gb|-9~------9---------------------9--------------------------------------|
Db|-9~-------------------------------------------------------------------|
Ab|-7~-------------------------------------------------------------------|
C#|----------------------------------------------------------------------|

2:30

eb|-7~-------5----------5-----------------5~----------5--------------5--------|
bb|-6~---------6----------6---------------6~-------------6--------------6-----|
gb|-7~----7---------7---------------------7~-----7---------------7------------|
Db|-7~------------------------------------7~----------------------------------|2x
Ab|-5~------------------------------------5~----------------------------------|
C#|---------------------------------------------------------------------------|

2:29
GtrII Am
GtrI
eb|---------------------------------------------------------------------------|
bb|-10---12----10---12----13---12----10----12---------------------------------|
gb|----12---12---12----12----12----12----12-----------------------------------|
Db|---------------------------------------------------------------------------|
Ab|---------------------------------------------------------------------------|
C#|---------------------------------------------------------------------------|

Presolo-
2:43
GtrI
eb|--------------------------------------------|
bb|--------------------------------------------|
gb|-9--2-2--5-5--7-7--9-9--2-2--5-5--7-7--9----|
Db|--------------------------------------------|
Ab|--------------------------------------------|
C#|--------------------------------------------|


eb|--0-0-0-0-0-0-0-0-0-0-0-0-0-0-0-0-----------|
bb|--1-1-1-1-1-1-1-1-1-1-1-1-1-1-1-1-----------|
gb|--2-2-2-2-2-2-2-2-2-2-2-2-2-2-2-2-----------|
Db|--2-2-2-2-2-2-2-2-2-2-2-2-2-2-2-2-----------|
Ab|--0-0-0-0-0-0-0-0-0-0-0-0-0-0-0-0-----------|
C#|--------------------------------------------|

Solo-
2:48
GtrI
eb|----------------------------------------|------------------------------------------|
bb|----------------------------------------|------------------------------------------|
gb|-9/10-10--9-10--10/12-10/9--9-9-9-9-9-9-|-9/10-10--9-10--10/12-10/9--9-9^-9-9-9^-9-|
Db|----------------------------------------|------------------------------------------|
Ab|----------------------------------------|------------------------------------------|
C#|----------------------------------------|------------------------------------------|

GtrII
eb|------------------------------------------------|
bb|------------------------------------------------|
gb|------------------------------------------------|
Db|-3-3-3-3-3-3--7-7777777---3-3-3-3-3-3--77777777-|
Ab|-3-3-3-3-3-3--7-7777777---3-3-3-3-3-3--77777777-|
C#|-3-3-3-3-3-3--7-7777777---3-3-3-3-3-3--77777777-|
2:59
 GtrI        
eb|-----------------------------------------------------------------|
bb|-----------------------------------------------------------------|
gb|-7^(8)-7^-7^-7-7777777-5555--888888--8/10--1212-12/14-1414141414-|
Db|-----------------------------------------------------------------|
Ab|-------------5-5555555-3333--666666--6/8---1010-10/12-1212121212-|
C#|-----------------------------------------------------------------|

GtrII
eb|------------------------------------------------|
bb|------------------------------------------------|
gb|------------------------------------------------|
Db|-1-1-1-1-1-1-5--5555555--1-1-1-1-1-1-5--5555555-|
Ab|-1-1-1-1-1-1-5--5555555--1-1-1-1-1-1-5--5555555-|
C#|-1-1-1-1-1-1-5--5555555--1-1-1-1-1-1-5--5555555-|

3:09 
GtrI
eb|------------------------------------------------|
bb|------------------------------------------------|
gb|----10-10-10-10-10-10-10-10-10-10-10-10-10-10---|
Db|------------------------------------------------|
Ab|----8--8--8--8--8--8--8--8--8--8--8--8--8--8----|
C#|------------------------------------------------|

GtrII
eb|---------------------------------------------|
bb|-xxxxxxx------11/13-xx-13/15-x----x----------|
gb|-xxxxxxx-9/10-------xx-------x-14-x-12-14----|
Db|-xxxxxxx------------xx-------x----x----------|
Ab|---------------------------------------------|
C#|---------------------------------------------|

eb|---------------------------------------------|
bb|-xxxxxxx------11/13-xx-13/15-x----x----------|
gb|-xxxxxxx-9/10-------xx-------x-14-x-12-------|
Db|-xxxxxxx------------xx-------x----x----------|
Ab|---------------------------------------------|
C#|---------------------------------------------|

Do Chorus

Coda-
GtrI 0:38
eb|-----------------------------------------------|
bb|-----------------------------------------------|
gb|-----------------------------------------------|4x
Db|-----------------------------------------------|
Ab|------------15----------15-(2x)-----------15b--|
C#|-0-0-15-0-0----0-0-15-0---------0-0-15-0-0-----|
    * *    * *    * *    *         * *    * *  

Outro-
GtrII
eb|-----------------------------------------------|
bb|-----------------------------------------------|
gb|-----------------------------------------------|
Db|-----------------------------------------------|2x
Ab|------------15----------15-(2x)-----------15b--|
C#|-0-0-15-0-0----0-0-15-0---------0-0-15-0-0-----|
    * *    * *    * *    *         * *    * *  
GtrI 3:44 
eb|---------------------------------------------------------------------------|
bb|-3-3-3-6-6-5-5-5-6-6-6-8-8-6-6-6----5-5-5-6-6-6-8-8-8-10-10-10-15-15-15-15-|
gb|---------------------------------------------------------------------------|
Db|---------------------------------------------------------------------------|
Ab|---------------------------------------------------------------------------|
C#|---------------------------------------------------------------------------|


end with
Gtrs
eb|-----------------------------------------------|
bb|-----------------------------------------------|
gb|-----------------------------------------------|
Db|-----------------------------------------------|
Ab|------------15----------15-(2x)-----------15b--|
C#|-0-0-15-0-0----0-0-15-0---------0-0-15-0-0-----|
    * *    * *    * *    *         * *    * *  

eb|-----------------------------------------------|
bb|-----------------------------------------------|
gb|-----------------------------------------------|
Db|-----------------------------------------------|
Ab|------------15----------15-(2x)----------------|
C#|-0-0-15-0-0----0-0-15-0---------0-0-0-0-0-0-0--|
    * *    * *    * *    *         * * * * * * * 

Tap to rate this tab
# A B C D E F G H I J K L M N O P Q R S T U V W X Y Z