Song name
# A B C D E F G H I J K L M N O P Q R S T U V W X Y Z

Urban Dub - Alert The Armory tab

Alert The Armory  (Lead & Rhythm)

Intro
D#|-------------------------||
A#|-------------------------||
F#|-------5-----5-----------||
C#|-----7-----7-------------|| x6
G#|-5-5-----5-----7-8-7-5---||
C#|-------------------------||

D#|--------------------------------------||
A#|--------------------------------------||
F#|-------14--12--14--------14--12--14---||
C#|-------x---x---x---------x---x---x----||
G#|-------12--10--12--------12--10--12---||
C#|-0-0-0-------------0-0-0--------------||
    . . .             . . .

D#|-------------------------||
A#|-------------------------||
F#|-------5-----5-----------||
C#|-----7-----7-------------|| x2
G#|-5-5-----5-----7-8-7-5---||
C#|-------------------------||

D#|------------------------------------------------||
A#|------------------------------------------------||
F#|-------14--12--14--------14--12--14-------------||
C#|-------x---x---x---------x---x---x---0-0-0-0~---||
G#|-------12--10--12--------12--10--12--0-0-0-0~---||
C#|-0-0-0-------------0-0-0-------------0-0-0-0~---||
    . . .             . . .             . . .

Verse 1
D#|------------------------------------------------------||
A#|------------------------------------------------------||
F#|------------------------------------------------------||
C#|--------------------------------------------0-0-0-0~--||
G#|-888-12-8-10-888-12-8-888-12-8-10-888-12-8--0-0-0-0~--||
C#|--------------------------------------------0-0-0-0~--||
                                               . . .
D#|--12-------12---------------------------------------------------------||
A#|-----12---------------------------------------------------------------||
F#|--------12------------------------------------------------------------||
C#|---------------------------------------------------------------0-3-8--||
G#|-------------------888-12-8-10-888-12-8--888-12-8-10-888-12-8--0-3-8--||
C#|---------------------------------------------------------------0-3-8--||
   --delay-------

Pre-Chorus
D#|----------------------------------------------------||
A#|----------------------------------------------------||
F#|----------------------------------------------------||
C#|--8-8-8-8--10~-11-10-12s2--0-3-8---10~-10~-5555555--||
G#|--8-8-8-8------------------0-3-8-----------5555555--||
C#|--8-8-8-8------------------0-3-8-----------5555555--||

Chorus
D#|-------------------------------------------------------||
A#|-------------------------------------------------------||
F#|-7-7-9-7-7-17-19-14------------------------------------||
C#|-x-x-x-x-x-x--x--x---x3--0-0-0-3-0-0-0-7-7-5-5-5--0~---||
G#|-5-5-7-5-5-15-17-12------0-0-0-3-0-0-0-7-7-5-5-5--0~---||
C#|-------------------------0-0-0-3-0-0-0-7-7-5-5-5--0~---||

Rpt. Some parts of intro (listen to track)

Verse 2
D#|-12--12--12--12--12--12--12--12---------||
A#|---10--10--10--10--10--10--10--10-------||
F#|----------------------------------------||
C#|-----------------------------------0~---||
G#|-----------------------------------0~---||
C#|-----------------------------------0~---||

D#|-12--12--12--12--12--12--12--12-------||
A#|---10--10--10--10--10--10--10--10-----||
F#|--------------------------------------||
C#|--------------------------------------||
G#|--------------------------------------||
C#|--------------------------------------||

D#|----------------------------------------------------------------------||
A#|-----------------------------------------------10-10-10------11-11-11-||
F#|------------------------------------------------9--9--9------10-10-10-||
C#|--0-0-0-0-0-0-0-0-10-10-10-10-10-10-10-10-8-8-8---------8-8-8---------||
G#|--0-0-0-0-0-0-0-0-10-10-10-10-10-10-10-10-8-8-8---------8-8-8---------||
C#|--0-0-0-0-0-0-0-0-10-10-10-10-10-10-10-10-8-8-8---------8-8-8---------||

Rpt. pre-chorus but add this at end
D#|---------------------||
A#|---------------------||
F#|---------------------||
C#|--8-8-8-8-8-8-8------||
G#|--8-8-8-8-8-8-8------||
C#|--8-8-8-8-8-8-8------||

Rpt.Chorus (less high octave notes)

Outro solo
D#|------------------------------------------||
A#|------------------------------------------||
F#|-10-9-777-10-9-777-10-9-10-10h12-10-9-7---|| x2
C#|------------------------------------------||
G#|------------------------------------------||
C#|------------------------------------------||

---------------------------------------------------------------------------

Rhythm
Intro (figure out strumming)
D#|-----------------------------------------||
A#|-----------------------------------------||
F#|-----------------------------------------||
C#|-0-0-00-0-0-0-0---7777--7777-----000-0~--||
G#|-0-0-00-0-0-0-0---7777--7777--x2-000-0~--||
C#|-0-0-00-0-0-0-0---7777--7777-----000-0~--||
                                    ...

the rest can be figured out from the lead tabs.
just add more of the lower notes and less high octave notes.
Tap to rate this tab
# A B C D E F G H I J K L M N O P Q R S T U V W X Y Z