Song name
# A B C D E F G H I J K L M N O P Q R S T U V W X Y Z

Urban Dub - Soul Searching tab

Soul Searching (Lead & Rhythm)

Lead
Intro
D#|------------------------------------------||
A#|------------------------------------------||
F#|------------------------------------------|| 
C#|----22-----333-22-33----------------------|| 4x
G#|-00----222-----------22-------------------||
C#|------------------------------------------||

Intro pt. 2
D#|------------------------------------------||
A#|------------------------------------------||
F#|-55-77-12-12-12-14-12-12-12---------------|| 
C#|-xx-xx-x---x-x--x--x--x--x----------------|| x4
G#|-33-55-10-10-10-12-10-10-10---------------||
C#|------------------------------------------||

Verse
Do intro pt. 1
then
D#|-------------------------||
A#|-------------------------||
F#|-------55-77-------------|| 
C#|-77-33-55-77-77----------||
G#|-77-33-33-55-77----------||
C#|-77-33-------77----------||
figure out strumming
(remove last two notes at certain parts - listen to track!)

Chorus - figure out strumming
D#|------------------------------------------||
A#|------------------------------------------||
F#|----------10-9--10-9--10-9--10-9--12------|| 
C#|-3--5--3--x--x--x--x--x--x--x--x--x-------||
G#|-3--5--3--8--7--8--7--8--7--8--7--10------||
C#|-3--5--3----------------------------------||

D#|------------------------------------------||
A#|------------------------------------------||
F#|------------------------------------------|| 
C#|--3--5--88-88-8--10h12p10-----------------||
G#|--3--5--88-88-8---------------------------||
C#|--3--5--88-88-8---------------------------||

Verse 2 can be easily figured out (listen to track)

Rpt. Chorus

Bridge
D#|----------------------------------------------------------------------||
A#|----------------------------------------------------------------------||
F#|----------------------------------------------------------------------|| 
C#|--0--3--0-3--00000000000000-3333333333333-000000000000--88888888888---||
G#|--0--3--0-3--00000000000000-3333333333333-000000000000--88888888888---||
C#|--0--3--0-3--00000000000000-3333333333333-000000000000--88888888888---||
                .............. ............. ............

Rpt. Chorus

----------------------------------------------------------------------------

Rhythm
Intro pt. 2
D#|------------------------------||
A#|------------------------------||
F#|------------------------------|| 
C#|--77-33-55-77-555-------------|| x4
G#|--77-33-55-77-555-------------||
C#|--77-33-55-77-555-------------||

Verse
D#|------------------------------------||
A#|-10---101010--101010--101010--------||
F#|-9----9-9-9---9-9-9---9-9-9---------|| 
C#|------------------------------------||
G#|------------------------------------||
C#|------------------------------------||

this is the only difference of rhythm so just use the lead tabs for the rest
Tap to rate this tab
 
# A B C D E F G H I J K L M N O P Q R S T U V W X Y Z