Urban Dub - Would You Go chords

Highlighted       Show chord diagrams
-----------------------------------------------------------------------------
			     Would You Go - Urban Dub
-----------------------------------------------------------------------------
Tabbed by: Boy Igkas
Email: engotka@yahoo.com

Tuning: Drop C#

Intro:
e|----------------------------------------------------------------------------|
B|----------------------------------------------------------------------------|
G|----------------------------------------------------------------------------|
D|--8-6-5--6-5----66h8-8h10p8-6-----3-3h5-5h6p5-3-8-6-5--6-5------------------|
A|--------8----8--66---6------6-2x--3-3---3-----3-------8----8----------------|
E|----------------66---6------6-----3-3---3-----3-----------------------------|

Verse: (guitar2)
   G#                                F                                ....
e|---------------------------------------------------------------------------|
B|---------------------------------------------------------------------------|
G|---------------------------------------------------------------------------|
D|---6688665565865--6688665565865------3355335533565---3355335533565---------|
A|-66-----------------66-------------33--------------33---------------66-----|
E|---------------------------------------------------------------------------|

Verse 1
G#                       F
   Fly High, Take To The Sky
G#                                  F
   leave All Your Load, Leave It Behind
G#
   no Time To Waste
                               F
   we're Gonna Make This Party Live

   bust Up A F***ed Up Jive Tonight,

Chorus:
e|---------------------------------------------------------------------------|
B|---------------------------------------------------------------------------|
G|---------------------------------------------------------------------------|
D|----------------66h8-8h10p8-6-----3-3h5-5h6p5-3------8-6-5--6-5------------|
A|----------------66---6------6-2x--3-3---3-----3-2x--------8----8-----------|
E|----------------66---6------6-----3-3---3-----3----------------------------|

                        G#
   tonight, Tonight, Tonight.
                        F
   tonight, Tonight, Tonight.

Verse 2:
(same as verse 1)
   just Close Your Eyes And Get With Me
   leave All Your Cares And Trip With Me
   no Time To Waste
   we're Gonna Make This Party Live
   bust Up A F***ed Up Jive Tonight,

Chorus:
e|---------------------------------------------------------------------------|
B|---------------------------------------------------------------------------|
G|---------------------------------------------------------------------------|
D|----------------66h8-8h10p8-6-----3-3h5-5h6p5-3------8-6-5--6-5------------|
A|----------------66---6------6-2x--3-3---3-----3-2x--------8----8-----------|
E|----------------66---6------6-----3-3---3-----3----------------------------|

                        G#
   tonight, Tonight, Tonight.
                        F
   tonight, Tonight, Tonight.

Bridge:
e|---------------------|
B|---------------------|
G|---------------------|
D|---8888888-333-5-----|
A|---6666666-333---4x--|   2 beses yan
E|-----------333-------|
              ..
Eb
   you Say You Will
                            F
   if You Would, Would You Go?
   i Guess I Got To Know

Chorus
Verse
Chorus


Pakinggan niyo nalang yung song sa timing...
Pag may mali, paki lagay nlng sa comment ung correction
Don't forget to rate! \m/
************************************

| /   slide up
| \   slide down
| h   hammer-on
| p   pull-off
| ~   vibrato
| +   harmonic
| x   Mute note
| b   Bend
| pb  Pre-bend
| br  Bend release
| pbr Pre-bend release
| brb Bend release bend

************************************
Tap to rate this tab
 
# A B C D E F G H I J K L M N O P Q R S T U V W X Y Z