Song name
# A B C D E F G H I J K L M N O P Q R S T U V W X Y Z

Urban Dub - Evidence tab

Title: Evidence
Artist: Urbandub
Album: Under Southern Lights (2007)

Tuning: Eflat half step down.
*This is a response to my previous post. This is a correction
100% sure that this tab is 98% accurate.

Intro
[1]
d#|--0-----------0-----------------------|
A#|--7-----------3-----------------------|
F#|--8-----------3-----------------------|
C#|--6-----------2-----------------------|
G#|--7-----------0-----------------------|
D#|--0-----------3-----------------------|

Verse
[1]
d#|--0-----------0---------0-------------|
A#|--7-----------3---------7-------------|
F#|--8-----------3---------8-------------|
C#|--6-----------2---------6-------------|
G#|--7-----------0---------7-------------|
D#|--0-----------3---------0-------------|

*same as [1]

Refrain
d#|--------------------------------------|
A#|---0----------------------------------|
F#|---9------8---------------------------|
C#|---9------9---------------------------|
G#|---x------7---------------------------|
D#|---9------x---------------------------|

*guitar 2 is a delay pluck effect of guitar 1
i can't imagine posting how the tab goes into this part.

Chorus
[1]
d#|--------0----4----7-------------------|
A#|--------7----5----x-------------------|
F#|--------8----4----9-------------------|
C#|---9----9----6----9-------------------|
G#|---9----9----4----7-------------------|
D#|---7----0---------0-------------------|

d#|------9-----9-----9-----9-----9-----9-------7-----7-----7-------|
A#|----7---7-----7-----7-----7-----7-------7-----7-----7-----7-----|
F#|--8-------8-----8-----8-----8-----8---8---8-----8-----8-----8---|
C#|----------------------------------------------------------------|
G#|----------------------------------------------------------------|
D#|----------------------------------------------------------------|
Note: have it in timing.

Adlib
[1]
d#|--0-----------0-----------------------|
A#|--7-----------3-----------------------|
F#|--8-----------3-----------------------|
C#|--6-----------2-----------------------|
G#|--7-----------0-----------------------|
D#|--0-----------3-----------------------|

Verse 2
[1]
d#|--------------------------------------|
A#|-------0-------0----------------------|
F#|---8---9---8---9----------------------|
C#|---9---9---9---9----------------------|
G#|---7---x---7---x----------------------|
D#|---x---9---x---9----------------------|

[2]	(4x)	 (2x)	 (2x)
d#|-------------|-------12-11-|-------9-7------|
A#|-------------|--9-12-------|--9-12----------|
F#|--------9-8--|-------------|----------------|
C#|---9-11------|-------------|----------------|
G#|-------------|-------------|----------------|
D#|-------------|-------------|----------------|

Repeat Chorus

Bridge
[1]
d#|------------0------------------------|
A#|------------7------------------------|
F#|------------8------------------------|
C#|---6----9---9------------------------|
G#|---6----9---9------------------------|
D#|---4----7---0------------------------|

d#|----------------9h11--------------------------|
A#|---------7cont.------7cont.(break)/9----------|
F#|--8cont.--------------------------------------|
C#|----------------------------------------------|
G#|----------------------------------------------|
D#|----------------------------------------------|

Instrumental
[1]
d#|--0-----------0-------0----------------|
A#|--7-----------3-------7----------------|
F#|--8-----------3-------8----------------|
C#|--6-----------2-------6----------------|
G#|--7-----------0-------7----------------|
D#|--0-----------3-------0----------------|

d#|-----------------------------------------------|
A#|-----------------------------------------------|
F#|---6/8-6--4/6-4-------4-6--6b8-6(5)4-6-4~------|
C#|----------------4(5)6--------------------6-----|
G#|-----------------------------------------------|
D#|-----------------------------------------------|

d#|------------------------------------------------|
A#|-------------------------14b16-14(13)12-14-12~~-|
F#|--3-5-3----------4------------------------------|
C#|-----------4(5)6---6~---------------------------|
G#|---------4--------------------------------------|
D#|------------------------------------------------|

Repeat refrain

Interlude
[1]
d#|---11-----11-----11-----11--------11-----14-----14-----14---------|
A#|-----12-----12-----12-----12---12---12-----12-----12-----12---12--|
F#|-------13-----13-----13-----13--------13-----13-----13-----13-----| (2x)
C#|------------------------------------------------------------------|
G#|------------------------------------------------------------------|
D#|------------------------------------------------------------------|

d#|------9-----9-----9-----9-----9-----9-------7-----7-----7-------|
A#|----7---7-----7-----7-----7-----7-------7-----7-----7-----7-----|
F#|--8-------8-----8-----8-----8-----8---8---8-----8-----8-----8---|
C#|----------------------------------------------------------------|
G#|----------------------------------------------------------------|

d#|------9-----9-----9-----9-----9-----9-------7-----7-----7-------|
A#|----7---7-----7-----7-----7-----7-------7-----7-----7-----7-----|
F#|--8-------8-----8-----8-----8-----8---8---8-----8-----8-----8---|
C#|----------------------------------------------------------------|
G#|----------------------------------------------------------------|
D#|----------------------------------------------------------------|
Note: play [2] when [1] plays at the d#|----14------| part
A#|------12----|
F#|--------13--|

Chorus
[1]
d#|--------0----4----7-------------------|
A#|--------7----5----x-------------------|
F#|--------8----4----9-------------------|
C#|---9----9----6----9-------------------|
G#|---9----9----4----7-------------------|
D#|---7----0---------0-------------------|

[2] 
d#|------9-----9-----9-----9-----9-----9-------7-----7-----7-------|
A#|----7---7-----7-----7-----7-----7-------7-----7-----7-----7-----|
F#|--8-------8-----8-----8-----8-----8---8---8-----8-----8-----8---| (2x)
C#|----------------------------------------------------------------|
G#|----------------------------------------------------------------|
D#|----------------------------------------------------------------|

[2]	(4x)	 (4x)	
d#|-------------|-------12-11-|-------9-7------|
A#|-------------|--9-12-------|--9-12----------|
F#|--------9-8--|-------------|----------------|
C#|---9-11------|-------------|----------------|
G#|-------------|-------------|----------------|
D#|-------------|-------------|----------------|

Outro
d#|--0-----------0-------0----------------|
A#|--7-----------3-------7----------------|
F#|--8-----------3-------8----------------|
C#|--6-----------2-------6----------------|
G#|--7-----------0-------7----------------|
D#|--0-----------3-------0----------------|

Tap to rate this tab
 
# A B C D E F G H I J K L M N O P Q R S T U V W X Y Z