Song name
# A B C D E F G H I J K L M N O P Q R S T U V W X Y Z

Urban Dub - Sailin tab

Note: This file is the author's own work and represents their interpretation 
of the song. You may only use this file for private study, scholarship, or 
research. 

Mine is better than the other tabs... Enjoy it...
Kayo na ang bahala sa order ng kanta...
Basta pakinggan nyo na lang ang nsa cd...

cia nga pla, Heart Evengelista... Pag kelangan m ng ???, and2
lang ako sa cotabato... hanapin m nlng ako d2...


Standard Tuning
(EADGBe)

Intro

Guitar 1
Play these 3x
e|-------------------------------|
B|-------------------------------|
G|-------------------------------|
D|---------5-3-5-3---------------|
A|-----------------6-6-6-5-5-6---|
E|--3-3-3------------------------|

then...
e|-------------------------------|
B|-------------------------------|
G|-------------------------------|
D|---------5-3-5-3---------------|
A|-----------------6-6-6-6-5-6-5-|
E|--3-3-3------------------------|

Guitar 2
Play these 4x
e|-------------------------------|
B|-------------------------------|
G|--------3-3--3-3-3-------------|
D|--------------------3-3-4-5----|
A|-------------------------------|
E|-------------------------------|

then...
Guitar 1
Play these 4x
e|-------------------------------|
B|-------------------------------|
G|-------------------------------|
D|--------5-3-5-3----------------|
A|----------------6-6-6-6-5-6-5--|
E|--3-3-3------------------------|

Guitar 2
Play these 4x
e|--3-3-----------8-8------------|
B|--3-3-----------8-8------------|
G|--4-4-----------8-8------------|
D|-------------------------------|
A|-------------------------------|
E|-------------------------------|


Chorus
Guitar 1
e|-----------------------------------------|
B|-----------------------------------------|
G|--5------------------5--------------0~~--|
D|--5--------8---------5-------5-----------|
A|--3--------8---------3-------5-----------|
E|-----------6-----------------3-----------|

Guitar 2
e|-------------------------------|
B|-------------------------------|
G|----5-5-5-5-5-3-0-0-0----------|
D|-------------------------------|
A|-------------------------------|
E|-------------------------------|


Verse
Guiatr 1
e|--3-3----------8-8-------------|
B|--3-3----------8-8-------------|
G|--4-4----------8-8-------------|
D|-------------------------------|
A|-------------------------------|
E|-------------------------------|

Filler
Guitar 2
e|--------10-10-10-10----------10----------8-8-8-8-----8----|
B|-----11-------------11-----11-----------8-------8---8-----|
G|--12------------------12-12------------8---------8-8------|
D|----------------------------------------------------------|
A|----------------------------------------------------------|
E|----------------------------------------------------------|


Solo
e|-------------------------------|
B|-------------------------------|
G|-------------------------------|
D|-------------------------------|
A|-------------------------------|
E|--3-3-3-5-5-7-7-8-8------------|
  pm-----------------

e|----------------------------------------------------------------------------------------------------|
B|------------------------------------4-4-4-----3h4-4-------------------------------------------------|
G|--/4-4h6-4h6-4----------------3h5---5-5-5-----------5-3-5-5b--0-3-0---------------------------------|
D|------------------3h5-3---3h5-----------------------------------------3h5-3-1-3h5-3-1-3-1-----------|
A|------------------------5------------------------------------------------------------------1-2-3----|
E|----------------------------------------------------------------------------------------------------|
                                    pm--                                                   pm------

e|--13-10-11-10----------------------------------|
B|--------------13-11-13-10h11-8---11h13-11------|
G|---------------------------------12-------12---|
D|-----------------------------------------------|
A|-----------------------------------------------|
E|-----------------------------------------------|

e|--13-10-11-10----------------------------|
B|--------------13-11-13-10h11-11h13-10----|
G|-----------------------------------------|
D|-----------------------------------------|
A|-----------------------------------------|
E|-----------------------------------------|

e|--13-10-11-10-------------------------------------------------------------|
B|--------------13-11-13-10h11-8--10h11 10--11h13-13-11-15-13-13h15-21~~----|
G|--------------------------------------------------------------------------|
D|--------------------------------------------------------------------------|
A|--------------------------------------------------------------------------|
E|--------------------------------------------------------------------------|

Bridge
Guitar 1
e|-------------------------------|
B|-------------------------------|
G|-------------------------------|
D|--5-------------10-------------|
A|--5-------------10-------------|
E|--3-------------8--------------|

Filler
Guitar 2    
e|------------------------------------|
B|------------------------------------|
G|------------------------------------|
D|--12-----------------12-------------|
A|-----15-13-13--13-15----15-13-15----|
E|------------------------------------|

e|------------------------------------|
B|------------------------------------|
G|------------------------------------|
D|--13-12-----------12-13-12----12----|
A|--------15-15--15----------15-------|
E|------------------------------------|


Pls rate this tab...
For comments, email me at puremassacre81@silverchair.nu or txt me.. 09283273282
Comments are appreciated... 
Tap to rate this tab
# A B C D E F G H I J K L M N O P Q R S T U V W X Y Z