Song name
# A B C D E F G H I J K L M N O P Q R S T U V W X Y Z

Urban Souls - Rehabs For Quiters tab

Help us improve GuitareTab! Take a short survey!
BAND:
SONG:
TUNING: DROP C DOWN A WHOLE STEP C G C F A D
WRITTEN BY:MICHAEL
INTRO:
D-------------------------------------------------------|
A-------------------------------------------------------|
F---------------------------------------^---------------|
C---0-X-X-X---X-X-X---X-X-X---X-X-X-X---^---------------|
G---0-X-X-X---2-0-0---3-0-0---2-0-3-0---2---------------|
C---0-X-X-X---2-0-0---3-0-0---2-0-3-0-------------------|
VERSE:
D-------------------------------------------------------|
A-------------------------------------------------------|
F---------------------------------------^-^-------------|
C---0-X-X-X---X-X-X---X-X-X---X-X-X-X---^-^-------------|
G---0-X-X-X---2-0-0---3-0-0---2-0-3-0---3-2-------------|
C---0-X-X-X---2-0-0---3-0-0---2-0-3-0-------------------|
CHORUS:
D-------------------------------------------------------|
A-------------------------------------------------------|
F-------------------------------------------------------|
C---7/--\1---X-X-X-X--3-0-------------------------------|
G---7/--\1---1-1-1-1--3-0-------------------------------|
C---7/--\1---1-1-1-1--3-0-------------------------------|

2ND CHORUS:
D-------------------------^-----------------------------|
A-----------------------^-0-^---------------------------|
F-----------------------0---0---------------------------|
C---7/--\1---X-X-X-X----------------0-------------------|
G---7/--\1---1-1-1-1----------------0-------------------|
C---7/--\1---1-1-1-1----------------0-------------------|


SOLO- PALM MUTE FALSE HARMONICS
D---------------------------------------------------------|
A---------------------------------------------------------|
F---------------------------------------------------------|
C-----------------------------------7-7-X-----------------|
G-----------------------------------7-7-0-----------------|
C--0-1-1-1-2-2-2-3-3-3-4-4-4-5-5-5--7-7-0-----------------|


D-------------------------------------------------------|
A-------------------------------------------------------|
F---------------------------------------^---------------|
C---0-X-X-X---X-X-X---X-X-X---X-X-X-X---^---------------|
G---0-X-X-X---2-0-0---3-0-0---2-0-3-0---2---------------|
C---0-X-X-X---2-0-0---3-0-0---2-0-3-0-------------------|

D-------------------------------------------------------|
A-------------------------------------------------------|
F---------------------------------------^---------------|
C---0-X-X-X---X-X-X---X-X-X---X-X-X-X---^---------------|
G---0-X-X-X---2-0-0---3-0-0---2-0-3-0---2---------------|
C---0-X-X-X---2-0-0---3-0-0---2-0-3-0-------------------|


D-------------------------------------------------------|
A-------------------------------------------------------|
F-------------------------------------------------------|
C---7/--\1---X-X-X-X--3-0-------------------------------|
G---7/--\1---1-1-1-1--3-0-------------------------------|
C---7/--\1---1-1-1-1--3-0-------------------------------|
Related for Rehabs For Quiters tab