Song name
# A B C D E F G H I J K L M N O P Q R S T U V W X Y Z

Urban Waste - Wasted Life tab

Riff (very fast)
E--------------------------------------------------|
B--------------------------------------------------|
G--------------------------------------------------|
D--11-11-11-11-11-11-11-11-11-11-11-11-11-11-11-11-|
A--11-11-11-11-11-11-11-11-11-11-11-11-11-11-11-11-|
E--9--9--9--9--9--9--9--9--9--9--9--9--9--9--9--9--|

E-----------------------------------|
B-----------------------------------|
G-----------------------------------|
D--7-7-7-7-7-7-7-7-9-9-9-9-9-9-9-9--|
A--7-7-7-7-7-7-7-7-9-9-9-9-9-9-9-9--|
E--5-5-5-5-5-5-5-5-7-7-7-7-7-7-7-7--|

Riff x11
(at the 4th and 8th time there's another guitar that makes a noisy pick scrape)

http://www.myspace.com/urbanwastenyc/blog
Tap to rate this tab
# A B C D E F G H I J K L M N O P Q R S T U V W X Y Z