Song name
# A B C D E F G H I J K L M N O P Q R S T U V W X Y Z

Urban Waste - Police Brutality tab

Riff 1
E-----------------------------------------------------------------------|
B-----------------------------------------------------------------------|
G--9-9-9-9-12--12-11--8-8-8-8-11-11-10--5-5-5-5-5-5-5-5-5-5-5-5-5-5-5-5-|
D--9-9-9-9-12--12-11--8-8-8-8-11-11-10--5-5-5-5-5-5-5-5-5-5-5-5-5-5-5-5-|
A--7-7-7-7-10--10-9---6-6-6-6-9--9--8---3-3-3-3-3-3-3-3-3-3-3-3-3-3-3-3-|
E-----------------------------------------------------------------------|

E---------------------------------------------------------------------|
B---------------------------------------------------------------------|
G---------------------------------------------------------------------|
D--7-7-7-7-10-10-9---6-6-6-6-9--9-8---4-4-4-4-4-4-4-4-4-4-4-4-4-4-4-4-|
A--7-7-7-7-10-10-9---6-6-6-6-9--9-8---4-4-4-4-4-4-4-4-4-4-4-4-4-4-4-4-|
E--5-5-5-5-8--8--7---4-4-4-4-7--7-6---2-2-2-2-2-2-2-2-2-2-2-2-2-2-2-2-|

Riff 2
E--------------------------------------------------------------|
B--------------------------------------------------------------|
G--------------------------------------------------------------|
D--3-3-3-3-4-4-4-4-3-3-3-3-4-4-4-4-3-3-3-3-4-4-4-4-3-3-3-3-4---|
A--3-3-3-3-4-4-4-4-3-3-3-3-4-4-4-4-3-3-3-3-4-4-4-4-3-3-3-3-4---|
E--1-1-1-1-2-2-2-2-1-1-1-1-2-2-2-2-1-1-1-1-2-2-2-2-1-1-1-1-2---|

Outro
E---------------------|
B---------------------|
G--9-9-9-9-12--12-11--|
D--9-9-9-9-12--12-11--|
A--7-7-7-7-10--10-9---|
E---------------------|

Riff 1 x2
Riff 2 x1
Riff 1 x2
Riff 2 x1
Outro  x1

http://www.myspace.com/urbanwastenyc/blog
Tap to rate this tab
 
# A B C D E F G H I J K L M N O P Q R S T U V W X Y Z