Song name
# A B C D E F G H I J K L M N O P Q R S T U V W X Y Z

Urbanus - Spanish Waltz Store Theme tab

Song: Spanish Waltz
By: Urbanus (http://urbanus.newgrounds.com/)
Game: Castle Crashers (http://www.thebehemoth.com/)
Tabbed by: bakedpotato486 (on XBox Live)
Tuning: Both are Standard (EADGBe)


Gtr I Rythm                   [           repeat this part four times           ]
e|--------------------------| |-------------------------------------------------|
B|---6-6---6-6----6-6---6-6-| |---6-6---6-6---4-4---4-4---4-4---------6-6---6-6-|
G|---6-6---6-6----6-6---6-6-|*|---6-6---6-6---5-5---5-5---5-5---------6-6---6-6-|*
D|--------------------------|*|-------------------------------------------------|*
A|-4------------4-----------| |-4-----------6-----------6---------3-4-----------|
E|-------4------------4-----| |-------4-----------4-----------4-6---------4-----|



Gtr II  Lead
e|--------------------------------9-8-------8-8-8-8-----------------|
B|-9h11-9h11-9h11----------9-11-9-----11------------11-9------------|
G|----------------10-11-12---------------11--------------11-10-8-10-|
D|------------------------------------------------------------------|
A|------------------------------------------------------------------|
E|------------------------------------------------------------------|


e|--------------------------------9-8-------8-8-8-8----8-9----------|
B|-9h11-9h11-9h11----------9-11-9-----11------------11-----9--------|
G|----------------10-11-12---------------11------------------10-----|
D|--------------------------------------------------------------11--|
A|------------------------------------------------------------------|
E|------------------------------------------------------------------|


e|-10s13-13-13-13-13----------------------------------12s14-14-14-14-14----------------------|
B|-------------------16-15-16-16-16-16-16-------13-14-------------------16-13-14-14-14-14-14-|
G|----------------------------------------13-15----------------------------------------------|
D|-------------------------------------------------------------------------------------------|
A|-------------------------------------------------------------------------------------------|
E|-------------------------------------------------------------------------------------------|


e|-------------14s16-16-16-16-16-14-13-14-14-14-14-14----------14----------------------|
B|-------13-14-------------------------------------------13-16----16-13-14-14-14-14-14-|
G|-13-15----------------------------------------------13-------------------------------|
D|-------------------------------------------------------------------------------------|
A|-------------------------------------------------------------------------------------|
E|-------------------------------------------------------------------------------------|
Tap to rate this tab
 
# A B C D E F G H I J K L M N O P Q R S T U V W X Y Z