Guitaretab - guitar tabs
Song name
# A B C D E F G H I J K L M N O P Q R S T U V W X Y Z

Uriah Heep - Lonely Nights tab

           E              B              A             B
e|---------0------------------------------0---------------------------------|
B|-------0---0---0---------5----------------2---2------5--------------------|
G|-------------1---------4---4--4------2------2-------4--4--4---------------|
D|-----2---------------4------4------2---------------4----4-----------------|
A|-------------------2-------------0---------------2------------------------|
E|---0----------------------------------------------------------------------|

e|--------------------------------------------------------------------------| 
B|--10--9--7-9---x2-then---------10--9---7--9----14--12---------------------|
G|--------------------------------------------9----------------------------|   
D|--------------------------------------------------------------------------|
A|--------------------------------------------------------------------------|
E|--------------------------------------------------------------------------|
           E             B               A              B
e|--------------------------------------------------------------------------|
B|--------------------------------------------------------------------------|
G|----11-----9------11-9-11-9-11-9--11-13-9----14-14--13--11--9-------------|
D|--------------------------------------------------------------------------|
A|--------------------------------------------------------------------------|
E|--------------------------------------------------------------------------|
[ Tab from: http://www.guitaretab.com/u/uriah-heep/156268.html ]
e|--------------------------------------------------------------------------|
B|--------------------------------------------------------------------------|
G|-----11-----9------11-9-11-9-11-9-11-13-9---------------------------------|
D|------------------------------------------11--9---------------------------|
A|--------------------------------------------------------------------------|
E|--------------------------------------------------------------------------|

       B   E         A             E   B
             Will you risk your reputation
       B   E         A
             I don't know
       B   E          A
             You just don't know
                         E   B
             What you're saying
       B   E      A
             Anymore
       B   E            A
             You know beggars
                       E   B
             Can't be choosers
       B   E           A     
             And it's fair
       B   E         A              E   B      
             we may win, we may be loosers
       B   E         A     B
             I don't care, no no no

                 E        B
             Oh baby, I just can't stand
                       A
             Another lonely night
                  B                E
             So come on over and save me
              B                     A            B
             Save me from another lonely night

             I hear every word you're saying
             They're all lies
             But with every breath you're taking
             You're thinking of
             Ways to say goodnight

             Baby, I just can't stand
             Another lonely night
             So come on over and save me
             Save me from another lonely night
             Come on over
             Come and save me.
Related for Lonely Nights tab