Song name
# A B C D E F G H I J K L M N O P Q R S T U V W X Y Z

Uriah Heep - Stealin tab

Stealin’(solo) – Uriah Heep
-------------------------------------------------------------------------------
Tabbed by:Rockincognito
Email:

Tuning:Standard

My First Tab!
e|------------------------------------------------------------------------------------|
B|-------12—15~-------12-15~-----12-15-17—17b(18)17b(18)17b(18)17b(18)-----15----15---|
G|----------------------------------------------------------------------------16------|
D|--/12----------/12------------------------------------------------------------------|
A|------------------------------------------------------------------------------------|
E|------------------------------------------------------------------------------------|

e|----------17b(19)17b(19)17b(19)17b(19)-------------17b(19)17b(19)17b(19)17b(19)-----|
B|-------17---------------------------------------17----------------------------------|
G|-16-19------------------------------------16-19-------------------------------------|
D|------------------------------------------------------------------------------------|
A|------------------------------------------------------------------------------------|
E|------------------------------------------------------------------------------------|

e|-----------------------------------------------------------|
B|-12-15-17-17b(18)17b(18)17b(18)17b(19)-----15----15--------|
G|----------------------------------------------16-----------|
D|-----------------------------------------------------------|
A|-----------------------------------------------------------|
E|-----------------------------------------------------------|

Two guitars for this next part. I think the second one just plays an octave below

e|-14----------14~---14----------14~---12b(13)12b(13)12b(13)12b(13)br(12)p10-12---10~-|
B|----15----15----------15----15------------------------------------------------------|
G|-------14----------------14---------------------------------------------------------|
D|------------------------------------------------------------------------------------|
A|------------------------------------------------------------------------------------|
E|------------------------------------------------------------------------------------|

e|-------------------------------------------------------14-14-14-17-17-17--|
B|----------------------------15-15-15----------15-15-15--------------------|
G|-------------------14-14-14----------14-14-14-----------------------------|
D|-12-12-12-16-16-16--------------------------------------------------------|
A|--------------------------------------------------------------------------|
E|--------------------------------------------------------------------------|

e|-16b(18)16b(18)16b(18)------------------|
B|----------------------------15-15-15~---|
G|----------------------------------------|
D|----------------------------------------|
A|----------------------------------------|
E|----------------------------------------|


************************************

| /   slide up
| \   slide down
| h   hammer-on
| p   pull-off
| ~   vibrato
| +   harmonic
| x   Mute note
| b   Bend
| pb  Pre-bend
| br  Bend release
| pbr Pre-bend release
| brb Bend release bend

************************************
Tap to rate this tab
# A B C D E F G H I J K L M N O P Q R S T U V W X Y Z