Song name
# A B C D E F G H I J K L M N O P Q R S T U V W X Y Z

Uriah Heep - Whats Within My Heart tab

                                           Artist - Uriah Heep
                                         *********************
                                     Song - What's Within My Heart 
                                    *******************************
                                        Album - Look At Yourself 
                                       **************************
                                          Tabbed By - Ayreon77
                                         **********************



INTRO
 D
[-------2---------------3---------------3---------------2---------|
[-----3---3-----------3---3-----------3---3-----------3---3-------|
[---2-------2---2---2-------2---2---2-------2---2---2-------2---2-|
[-0-----------0---0-----------0---0-----------0---0-----------0---|
[-----------------------------------------------------------------|
[-----------------------------------------------------------------|X2


00:22
 D
[-------2-----------------3-----------------3-----------------2----------|
[-----3---3-------------3---3-------------3---3-------------3---3--------|
[---2-------2----2----2-------2----2----2-------2----2----2-------2----2-|
[-0-----------0-----0-----------0-----0-----------0-----0-----------0----|
[------------------------------------------------------------------------|
[------------------------------------------------------------------------|
|                                                                        |
|SOLO                                                                    |
[----------------------b-------------------------------------------------|
[----------------3-----5----5----3-------h-------------------------------|
[------------2--------------------------2-4---2-----------h--------------|
[--0----4------------------------------------------------2-4---0---------|
[------------------------------------------------------------------------|
[------------------------------------------------------------------------|


------------------------------------------------------------------------ 
VERSE
******
1 - Will I never see again, The smiling faces of my friends
2 - I believe the sun will shine, And I know that given time 
3 - On my grave lay one black rose, Do this for me but don't suppose
 D
[-------2-----------------2-----------------2-----------------3----------|
[-----3---3-------------3---3-------------3---3-------------3---3--------|
[---2-------2----2----2-------2----2----2-------2----2----2-------2----2-|
[-0-----------0-----0-----------0-----0-----------0-----0-----------0----|
[------------------------------------------------------------------------|
[------------------------------------------------------------------------|
 
1 - Could it be they've gone completely
2 - The leaves will blow tumble 
3 - Because I'm gone, my soul is dead
 G
[--------3------------------3-----------|
[------3---3--------------3---3---------|
[----0-------0-----0----0-------0-----0-|
[---------------0------------------0----|
[---------------------------------------|
[-3------------------3------------------|
 
1 - And though thoughts will linger Sweetly in my Heart
2 - And cry upon the autumn stone below 
3 - For I'll be here in spirit, And our love once more  
 Eb                                   D                      p
[-------3-----------------3-----------------2---------------3-2-------|
[-----3---3-------------3---3-------------3---3-----------3-----3-----|
[---3-------3----3----3-------3----3----2-------2---2---2---------2---|
[-5-----------5-----5------------5----0-----------0---0-------------0-|
[---------------------------------------------------------------------|
[---------------------------------------------------------------------|


------------------------------------------------------------------------
CHORUS
*******
1 - May I hear once more      The bird calls my name
2 - And my heart grows tired each day, As the sun grow cold 
3 - There must be a heart somewhere, In need of the love I have
 C                G                            D
[--------0---------------3------------3--------------2-------|
[------1---1-----------3---3--------3---3----------3---3-----|
[----0-------0-------0-------0----3-------3------2-------2---|
[--------------2----------------5-----------5--0-----------0-|
[-3----------------------------------------------------------|
[-----------------3------------------------------------------|

1 - May I be permitted just one friend To share my game
2 - Weary uninspired each day, Till the story is told
3 - That will reach out in sincerity, And take my life in hand
 C               G                           D
[-------0--------------3------------3--------------2---------------2--------|
[-----1---1----------3---3--------3---3----------3---3-----------3---3------|
[---0-------0------0-------0----3-------3------2-------2---2---2-------2---2|
[-------------2---------------5-----------5--0-----------0---0-----------0--|
[-3-------------------------------------------------------------------------|
[----------------3----------------------------------------------------------|


------------------------------------------------------------------------
BRIDGE
*******
1 - One who doesn't give a damn      For what I
2 - You gave your love to one who only wants What you
3 - Then I'll know it's not some one, Who wants just what I
 Bm
[-------2----------------2----------------2---------|
[-----3---3------------3---3------------3---3-------|
[---4-------4---4----4-------4---4----4-------4---4-|
[-------------4----------------4----------------4---|
[-2----------------2----------------2---------------|
[---------------------------------------------------|
    
1 - seem    to     be              But Beauty cares for what I am
2 - seem    to     be              And doesn't really care for you
3 - seem    to     be              The one who cares For what I am
 E                                 A 
[-------0---------------0----------------0---------------0---------|
[---------0---------------0----------------2---------------2-------|
[-----1-----1---1-----1-----1---1------2-----2---2-----2-----2---2-|
[---2---------2-----2---------2------2---------2-----2---------2---|
[----------------------------------0---------------0---------------|
[-0---------------0------------------------------------------------|

1 - And And what's within my heart....
2 - Or what's within your heart....
3 - And what's within my heart....
[-------0---------------0----------------------|
[---------2---------------2--------------------|
[-----2-----2---2-----2-----2---2--BACK--------|
[---2---------2-----2---------2------TO--------|
[-0---------------0-------------------INTRO....|
[----------------------------------------------|


Before the 3rd VERSE another acoustic guitar starts strumming.........
 
------------------------------------------------------------------------
After 3rd verse go to OUTRO
OUTRO
******
 GUITAR 1                                        What's within my heart
[-------2---------------3---------------3---------------2---------|
[-----3---3-----------3---3-----------3---3-----------3---3-------|
[---2-------2---2---2-------2---2---2-------2---2---2-------2---2-|
[-0-----------0---0-----------0---0-----------0---0-----------0---|
[-----------------------------------------------------------------|
[-----------------------------------------------------------------|
|                                                                 |
|GUITAR 2                                                         | 
[--------------------------------14--------------14---------------|    
[--------------------------------15--------------15---------------|      
[--------------------------------14--------------14---------------|       
[-----------------------------------------------------------------|
[-----------------------------------------------------------------|
[-----------------------------------------------------------------|

Repeat Above Section To The End........


ENJOY..........
Tap to rate this tab
# A B C D E F G H I J K L M N O P Q R S T U V W X Y Z