Song name
# A B C D E F G H I J K L M N O P Q R S T U V W X Y Z

Uriah Heep - I Wanna Be Free tab

                                          Artist - Uriah Heep
                                         *********************
                                        Song - I Wanna Be Free 
                                       ************************
                                       Album - Look At Yourself 
                                      **************************
                                         Tabbed By - Ayreon77
                                        **********************


INTRO
******
you can play normal chords if you prefer.

  A   G  D   A   G  D   A   G  D   E  A  E
[----------|----------|----------|---------]
[--------7-|--------7-|--------7-|---------]
[-6---4--7-|-6---4--7-|-6---4--7-|----2----]
[-7---5--7-|-7---5--7-|-7---5--7-|-2--2--2-]
[-7---5--5-|-7---5--5-|-7---5--5-|-2--0--2-]
[-5---3----|-5---3----|-5---3----|-0-----0-]


------------------------------------------------------
VERSE 1
*********
     A
As I wake up everyday with no new songs to play
                                        G
Feelin' like I ought to pack my bag and run
   A
My imagination flies to some other sunny skies
                                        G
Where I felt so good and everything was done
BASS
       F#m         E          G             D
And my time was my own and my heart felt so free

Come on

------------------------------------------------------
SECTION 1
**********
  E  A  E   E  A  E   A A A G D   A A A G D
[---------|---------|-----------|-----------]
[---------|---------|---------7-|---------7-]
[----2----|----2----|-6-6-6-4-7-|-6-6-6-4-7-]
[-2--2--2-|-2--2--2-|-7-7-7-5-7-|-7-7-7-5-7-]
[-2--0--2-|-2--0--2-|-7-7-7-5-5-|-7-7-7-5-5-]
[-0-----0-|-0-----0-|-5-5-5-3---|-5-5-5-3---]

  
------------------------------------------------------
SECTION 2
**********                                  
VERSE 2
[---------|---------|---------|---------]
[---------|---------|---------|---------]
[-6-6-6-4-|-6-6-6-4-|-6-6-6-6-|-4-4-4-4-]
[-7-7-7-5-|-7-7-7-5-|-7-7-7-7-|-5-5-5-5-]
[-7-7-7-5-|-7-7-7-5-|-7-7-7-7-|-5-5-5-5-]
[-5-5-5-3-|-5-5-5-3-|-5-5-5-5-|-3-3-3-3-]X2

VERSE 2
********
        A
I don't mind a little rain but it doesn't seem the same
                                             G
When the clouds shut out your beauty from my eyes
          A
There's a storm inside my head and I know it doesn't lead
                                  G
To a clearer day when nobody will cry

SECTION 3
**********
(USE WHA WHA FOR THESE CHORDS)
[--------2---------0-----------3----------2-]
[--------2---------0-----------0----------3-]
[--------2---------1-----------0----------2-]
[--------4---------2-----------0----------0-]
[--------4---------2-----------2------------]
[--------2---------0-----------3------------]

        F#m        E           G          D
I can't stand here alone and I need to be free

Free

------------------------------------------------------
SECTION 4
**********
[---------|---------]
[---------|---------]
[----2----|----2----]
[-2--2--2-|-2--2--2-]
[-2--0--2-|-2--0--2-]
[-0-----0-|-0-----0-]


------------------------------------------------------
01:45
SOLO
*****                    
[----whammy-----------------------|----------b-------rb-----s---]
[-b---------rbp------h-p--------s-|--h---10-12-~~~--12-10-8-\17-]
[-4-/\/\/\--4--2----2-4-2-2-~~~-\-|-9-11------------------------]
[----------------4----------------|-----------------------------]
[---------------------------------|-----------------------------]
[---------------------------------|-----------------------------]


 GUITAR 1                                   b
[----h--5--|----h--5--|----h--5--|----h--5--7--]\
[---5-7----|---5-7----|---5-7----|---5-7-------] \
[----------|----------|----------|-------------]  \
[----------|----------|----------|-------------]   \
[----------|----------|----------|-------------]    \
[----------|----------|----------|-------------]     \
|                                              |      |
|GUITAR 2                                      |      |X3
[----------|----------|----------|-----------b-]     /
[---h---14-|---h---14-|---h---14-|---h---14-16-]    /
[-14-16----|-14-16----|-14-16----|-14-16-------]   /
[----------|----------|----------|-------------]  /
[----------|----------|----------|-------------] /
[----------|----------|----------|-------------]/

   
02:05           F#m          E              G            D
 GUITAR 1       Ahhhhhhhhhh  Ahhhhhhhhhhhh  Ahhhhhhhhhh  Ahhhhhhhhh
[--------------|------------|--------------|------------|-----------]
[-8---7---5----|------------|--------------|------------|-----------]
[------------7-|-6--6--6--6-|-4--4--4--4-6-|-7--7--7--7-|---------s-]
[--------------|------------|--------------|------------|-7--7--7-\-]
[--------------|------------|--------------|------------|-----------]
[--------------|------------|--------------|------------|-----------]
|                                                                   |
|GUITAR 2                                                           |
[--------------|----------------------------------------------------]
[-15-14-12-----|----------------------------------------------------]
[----------14--|----------------------------------------------------]
[--------------|----------------------------------------------------]
[--------------|----------------------------------------------------]
[--------------|----------------------------------------------------]


------------------------------------------------------
SECTION 4
**********
[---------|---------]
[---------|---------]
[----2----|----2----]
[-2--2--2-|-2--2--2-]
[-2--0--2-|-2--0--2-]
[-0-----0-|-0-----0-]

------------------------------------------------------
SECTION 2
**********                                  
VERSE 3
[---------|---------|---------|---------]
[---------|---------|---------|---------]
[-6-6-6-4-|-6-6-6-4-|-6-6-6-6-|-4-4-4-4-]
[-7-7-7-5-|-7-7-7-5-|-7-7-7-7-|-5-5-5-5-]
[-7-7-7-5-|-7-7-7-5-|-7-7-7-7-|-5-5-5-5-]
[-5-5-5-3-|-5-5-5-3-|-5-5-5-5-|-3-3-3-3-]X2
 
VERSE 3
********
         A
So bring fire and bring steel for you know the way I feel
                                 G
Bring a silver horse to carry me away 
       A
I'm no stranger I'm a friend and my pain will never end
                                             G
Till the world will let us live our lives as one

SECTION 3
**********
(USE WHA WHA FOR THESE CHORDS)
[--------2----------0-----------3-------------2-]
[--------2----------0-----------0-------------3-]
[--------2----------1-----------0-------------2-]
[--------4----------2-----------0-------------0-]
[--------4----------2-----------2---------------]
[--------2----------0-----------3---------------]

        F#m         E           G             D
And our time is our own and our hearts can be free

------------------------------------------------------
SLIDE SOLO - Use a Slide - not 100% on this slide, its hard to make out
***********
 GUITAR 1
[----------s-----------s-----------s--------------------s-]
[---------3\5---------5\3---------3\10--------10-10-10\13-]
[---------------------------------------------------------]
[---------------------------------------------------------]
[---------------------------------------------------------]
[---------------------------------------------------------]
|                                                         |
|GUITAR 2                                                 |
|     E           D           A            C              |
[---------------------------------------------------------]
[-scratch-------------------------------------------------]
[--pleck--------------------------------------------------]
[-----2-----------7------------------------5--------------]
[--X--2--------x--5--------X--7---------X--3--------------]
[-X---0-------X-----------X---5--------X------------------]


 GUITAR 1
[---s-------s-------------|-----------------s------|---s---------s-------]
[-10\9----10\9---------s--|----s----14-15-13\---14-|-18\17-----18\17-----]
[------9-------9--9-9-9\7-|-7-7\14-----------14----|-------17---------17-]
[-------------------------|------------------------|---------------------]
[-------------------------|------------------------|---------------------]
[-------------------------|------------------------|---------------------]
|                                                       |
|GUITAR 2                                               |
| E             D             A             C           |
[-------------|-------------|-------------|-------------]
[-------------|-------------|-------------|-------------]Continue 
[-------------|-7-7-7-7-7-7-|-------------|-5-5-5-5-5-5-]this chord 
[-2-2-2-2-2-2-|-7-7-7-7-7-7-|-7-7-7-7-7-7-|-5-5-5-5-5-5-]sequence
[-2-2-2-2-2-2-|-5-5-5-5-5-5-|-7-7-7-7-7-7-|-3-3-3-3-3-3-]to the 
[-0-0-0-0-0-0-|-------------|-5-5-5-5-5-5-|-------------]end    E D A C


 03:20
[------------------------s------|------------------------------s------------]
[--------------s---17--17\20----|---------------------14-----14\21----------]
[---s---14---14\17-----------20-|---s---14-14---14-14----14--------21-21-21-]
[-12\14-------------------------|-12\14-------------------------------------]
[-------------------------------|-------------------------------------------]
[-------------------------------|-------------------------------------------]


[--------------------------------|---s---------|--------------------]
[-21-22-21---s-----s------s---21-|-22\21-------|-20-21-20-------s---]
[----------20\21-20\21--20\21----|-------21-19-|----------20--17\15-]
[--------------------------------|-------------|--------------------]
[--------------------------------|-------------|--------------------]
[--------------------------------|-------------|--------------------]


[-------------------|---s----------------|---s----------------]
[-------14-15-14-13-|-19\21--21-22-21----|-17\19--19-20-19----]
[-14-14-------------|-----------------21-|-----------------19-]
[-------------------|--------------------|--------------------]
[-------------------|--------------------|--------------------]
[-------------------|--------------------|--------------------]

 GUITAR 1
[-----------------------|-----------------------|---s---------------------s-]
[---s---14--14-15-14----|---s---17--17-18-17----|-15\21-----21----------21\-]
[-12\14--------------14-|-16\18--------------18-|--------21----21-----------]
[-----------------------|-----------------------|-----------------21--------]
[-----------------------|-----------------------|---------------------------]
[-----------------------|-----------------------|---------------------------]
|                                                                           |
|GUITAR 2                                                                   |
[------------------------------------------------------------------------s--]
[--------------------------------------------------9--------9-----------9\--]
[--------------------------------------------------9-----9-----9--------9\--]
[--------------------------------------------------9--------------9-9---9\--]
[--------------------------------------------------7--------------------7\--]
[---------------------------------------------------------------------------]
                                                                     THE END
CHORUS
*******
           E
I wanna be free again
           D
I wanna be free yeah
           A
I wanna be free yeah
         C
Wanna be free
           E
I wanna be free
           D
I wanna be free yeah
           A            
I gotta be free yeah
           C                     
I wanna be free
           E                
I wanna be free Yeah yeah


ENJOY.......
Tap to rate this tab
# A B C D E F G H I J K L M N O P Q R S T U V W X Y Z