Song name
# A B C D E F G H I J K L M N O P Q R S T U V W X Y Z

Urinals - Surfin With The Shah tab

Most of the song follows this pattern with a few repeats thrown in:
E|---------------------------------------------------------------------------------------------|
B|---------------------------------------------------------------------------------------------|
G|--14--14--12--12--11--11--12p11--12--11--11--9--9--7--7--3--3--4--4--5--5--5--5--5--5--5--5--|
D|--12--12--12--12--11--11--11-----11--11--11--9--9--7--7--3--3--4--4--5--5--5--5--5--5--5--5--|
A|---------------------------------------------------------------------------------------------|
E|---------------------------------------------------------------------------------------------|

If you want to play chord voicings:
E|---------------------------------------------------------------------------------------------|
B|---------------------------------------------------------------------------------------------|
G|--14--14--12--12--11--11--12p11--12--11--11--9--9--7--7--4--4--5--5--7--7--7--7--7--7--7--7--|
D|---------------------------------------------------------------------------------------------|
A|--12--12--10--10--9---9---10p9---10--9---9---7--7--5--5--2--2--3--3--5--5--5--5--5--5--5--5--|
E|---------------------------------------------------------------------------------------------|
Tap to rate this tab
# A B C D E F G H I J K L M N O P Q R S T U V W X Y Z