Song name
# A B C D E F G H I J K L M N O P Q R S T U V W X Y Z

Us Army Band - Army Strong tab

Army Strong
Tabbed by:
N-Train


e|---------------------------------------------------------------------------|
B|---------------------------------------------------------------------------|
G|---------------------------------------------------------------------------|
D|---------------------------------------------------------------2-----------|
A|----0----0-----0-2-3-2-0--------------------0--0---0-2-3-2-0---------------|
E|-------------------------3--0--0-----0--3--------------------3-------------|

e|---------------------------------------------------------------------------|
B|---------------------------------------------------------------------------|
G|---------------------------------------------------------------------------|
D|0---2---3--------2---3---5----3---2---0----2---3--------0------------------|
A|-------------3-----------------------------------3-----------4-------------|
E|---------------------------------------------------------------------------|

Tap to rate this tab
 
# A B C D E F G H I J K L M N O P Q R S T U V W X Y Z