Song name
# A B C D E F G H I J K L M N O P Q R S T U V W X Y Z

Us Army Band - The Army Goes Rolling Along chords

----------------------------------------------------------------------------
			     The Army goes rolling along.
----------------------------------------------------------------------------
Tabbed by:Chris
Email:MArs2078@aol.com

Tuning:E A D G B e

e|-------------------------------------------------------------------------|
B|------------------------------------------------------------------------O|
G|--3-0-3---3-0-3--3-0-5-3-0-3---0-1-3-1---3-1-----------------------------|
D|---------------------------------------3-----3-1-------------------------|
A|------------------------------------------------------------------------O|
E|-------------------------------------------------------------------------|

e|-------------------------------------------------------------------------|
B|-------------------------------------------------------------------------|
G|--3-3-8-8-7---7-5-7-8-5-3---8-8-8-8-8-7-8-10-----------------------------|
D|-------------------------------------------------------------------------|
A|-------------------------------------------------------------------------|
E|-------------------------------------------------------------------------|

e|-------------------------------------------------------------------------|
B|-------------------------------------------------------------------------|
G|--3-3-8-8-7---7-5-7-8-5-3----0-1-3-1---3-1-------------------------------|
D|-------------------------------------3-----3-1---------------------------|
A|-------------------------------------------------------------------------|
E|-------------------------------------------------------------------------|

  I wasn't sure how to tab the rhythm, but if you listen to the song, you'll figure it 
Thanks for playin along.
Tap to rate this tab
# A B C D E F G H I J K L M N O P Q R S T U V W X Y Z