Song name
# A B C D E F G H I J K L M N O P Q R S T U V W X Y Z

Us Bombs - Die Alone tab

Song: Die Alone
Band: U.S. Bombs
Albm: Back at the Laundromat

Intro:
|--------------------------------|----|----------------------------|
|-------------********-********--|----|----------------------------|
|-------------55555555-77777777--|----|-----------7-7-7-7-7-7-7-7--|
|--5----------55555555-77777777--|----|--5--------7-7-7-7-7-7-7-7--|
|--5----------33333333-55555555--|----|--5--------5-5-5-5-5-5-5-5--|
|--3-----------------------------|-x3-|--3-------------------------|

Riff:
|Guitar 1:
|--10-10-7------------------7-7-7-8-8-7----|--------10-8-7----|
|----------10-8--888-8h10p8-------------10-|--8------------8--|
|------------------------------------------|------------------|
|------------------------------------------|------------------|
|------------------------------------------|------------------|
|------------------------------------------|------------------|
|------------------------------------------|------------------|
|Guitar 2:
|--------------------------------------|
|--------------------------------------|
|-----------7-7-7-7--4-4-4-4--5-5-5-5--|
|--5-5-5-5--7-7-7-7--4-4-4-4--5-5-5-5--|
|--5-5-5-5--5-5-5-5--2-2-2-2--3-3-3-3--|
|--3-3-3-3-----------------------------|

|---------------------------------------------|
|---------------------------------------------|
|-----------7-7-7-7---------------------------|
|--5-5-5-5--7-7-7-7--3/5-5--3/5-5--3/5-5-5-5--|
|--5-5-5-5--5-5-5-5--3/5-5--3/5-5--1/5-5-5-5--|
|--3-3-3-3-----------1/3-3--1/3-3--1/3-3-3-3--|

Verse:
|--------------------------------------------------|
|-----------------*-*-*-*-----*-*-*-*--------------|
|-----*-*-*-*--4--4-4-4-4--5--5-5-5-5-----*-*-*-*--|
|--5--5-5-5-5--4--4-4-4-4--5--5-5-5-5--5--5-5-5-5--|
|--5--5-5-5-5--2--2-2-2-2--3--3-3-3-3--5--5-5-5-5--|
|--3--3-3-3-3--------------------------3--3-3-3-3--|

Chorus:
|---------------------------------------|----|--------------------|
|---------------------------------------|----|--------------------|
|--5-5-5-5-5-5-5-5-----------4/5--------|----|--5-5-5-5--7-7-7-7--|
|--5-5-5-5-5-5-5-5--5-5-5-5--4/5-5-5-5--|----|--5-5-5-5--7-7-7-7--|
|--3-3-3-3-3-3-3-3--5-5-5-5--2/3-5-5-5--|----|--3-3-3-3--5-5-5-5--|
|-------------------3-3-3-3------3-3-3--|-x3-|--------------------|

That's basically it. I didn't know the solo
but it ain't hard to make up your own.

Intro       x1
Riff        x1
Verse       x4
Riff        x1
Verse       x4
Chorus      x1
Intro       x1
Riff        x1
Riff (solo) x1
Chorus      x1
Riff        x2
End

Tabbed by owen_b123@hotmail.com
Tap to rate this tab
 
# A B C D E F G H I J K L M N O P Q R S T U V W X Y Z