Song name
# A B C D E F G H I J K L M N O P Q R S T U V W X Y Z

Us Bombs - Us Bombs tab



Intro
e|-----------------------10-12-14-14-14-12-10-10-12-12-10-9-10---|
B|--10-10-10-10-------10-----------------------------------------|
G|--------------12-11--------------------------------------------|
D|---------------------------------------------------------------|
A|---------------------------------------------------------------|
E|---------------------------------------------------------------|

        D             A             D            A
e|------2---------------------------2----------------------------|
B|------3-------------2-------------3------------2---------------|
G|------2-------------2-------------2------------2---------------|
D|------0-------------2-------------0------------2---------------|
A|------0-------------0-------------0------------0---------------|
E|---------------------------------------------------------------|

Verse
        E      A  B  A  E                                       8x
e|---------------------------------------------------------------|
B|---------------------------------------------------------------|
G|---------------------------------------------------------------|
D|------2------7--9--7--2----------------------------------------|
A|------2------7--9--7--2----------------------------------------|
E|------0------5--7--5--0----------------------------------------|

Chorus
        D   Db Bb A       D   E  Db A
e|---------------------------------------------------------------|
B|---------------------------------------------------------------|
G|------7---6--4--2-------7---9--6--2----------------------------|
D|------7---6--4--2-------7---9--6--2----------------------------|
A|------5---4--2--0-------5---7--4--0----------------------------|
E|---------------------------------------------------------------|

Verse

Chorus 2x

Verse

Chorus 2x
Tap to rate this tab
 
# A B C D E F G H I J K L M N O P Q R S T U V W X Y Z