Song name
# A B C D E F G H I J K L M N O P Q R S T U V W X Y Z

Us Bombs - Skater Dater tab

Help us improve GuitareTab! Take a short survey!
Skater Dater
US Bombs
Tabbed By Chris

Intro and Verse Riff
e|--------------------------------------------------------------|
B|--------------------------------------------------------------|
G|----14-14---12-12---------------------------------------------|
D|----14-14---12-12---12-12---14-14-----------------------------|
A|----12-12---10-10---12-12---14-14-----------------------------|
E|--------------------10-10---12-12-----------------------------|

Chorus
e|--------------------------------------------------------------|
B|--------------------------------------------------------------|
G|----14--------12----------------------------------------------|
D|----14-(x8)---12-(x8)---12--------14--------------------------|
A|----12--------10--------12-(x8)---14-(x8)---------------------|
E|------------------------10--------12--------------------------|

Solo
e|--------------------------------------------------------------|
B|---10-9-10-9-10-9-10-9----------------------------------------|
G|-------------------------12-11-12-11-12-11-12-11-9~ ----------|
D|--------------------------------------------------------------|
A|--------------------------------------------------------------|
E|--------------------------------------------------------------|
Related for Skater Dater tab