Song name
# A B C D E F G H I J K L M N O P Q R S T U V W X Y Z

Us Royalty - Hollywood Hallows tab

--| Hollywood Hallows |--| U.S. Royalty |--| Tab |--| Elias Landin |--



-| Standard Tuning |-

e |---------------------------|           |-------|
B |---------------------------|           |-------|
G |---------------------------|           |-------|
D |---5---5-------3-----------|  x12      |---5---|
A |-------------5---5-3-------|           |-------|
E |---------------------------|           |-------|


    -| 1st Guitar |-
e |----------------------------------------------8p6---------------------------------------------|
B |--8--11--13--s15--13--11h13--11---8---------6-----6h8-----------------------------------------|
G |----------------------------------------------------------------------------------------------|
D |----------------------------------------------------------------------------------------------|
A |----------------------------------------------------------------------------------------------|
E |----------------------------------------------------------------------------------------------|

    -| 2nd Guitar (comes in 2nd time) |-
e |----------------------------------------------------------------------------------------------|
B |----------------------------------------------------------------------------------------------|
G |------------------------------------------5p3-------------------------------------------------|
D |--5--8--10--s12--10--8h10--8---5--------3-----3h5p3-------------------------------------------|
A |----------------------------------------------------------------------------------------------|
E |----------------------------------------------------------------------------------------------|


e |---------------------------|
B |---------------------------|
G |---------------------------|
D |---5---5-------3-----------|  x10
A |-------------5---5-3-------|
E |---------------------------|


    -| Chorus |-
      [C]     [A#]      [F7]      [C]
e |----3---|----1---|----8----|----3---|
B |----5---|----3---|----10---|----5---|
G |----5---|----3---|----8----|----5---|
D |----5---|----3---|----10---|----5---|    x2
A |----3---|----1---|----8----|----3---|
E |--------|--------|---------|--------|


e |------------------------------------1----1----|
B |------------------------------------3----1----|
G |------------------------------------3----2----|
D |---s5--3----------------------------3----3----|
A |----------5------s5--3--1-----------1----3----|
E |-----------------------------------------1----|


    -| 1st Guitar |-
e |----------------------------------------------8p6---------------------------------------------|
B |--8--11--13--s15--13--11h13--11---8---------6-----6h8-----------------------------------------|
G |----------------------------------------------------------------------------------------------|
D |----------------------------------------------------------------------------------------------|
A |----------------------------------------------------------------------------------------------|
E |----------------------------------------------------------------------------------------------|

    -| 2nd Guitar (comes in 2nd time) |-
e |----------------------------------------------------------------------------------------------|
B |----------------------------------------------------------------------------------------------|
G |------------------------------------------5p3-------------------------------------------------|
D |--5--8--10--s12--10--8h10--8---5--------3-----3h5p3-------------------------------------------|
A |----------------------------------------------------------------------------------------------|
E |----------------------------------------------------------------------------------------------|


e |---------------------------|
B |---------------------------|
G |---------------------------|
D |---5---5-------3-----------|  x16
A |-------------5---5-3-------|
E |---------------------------|


    -| Chorus |-
      [C]     [A#]      [F7]      [C]
e |----3---|----1---|----8----|----3---|
B |----5---|----3---|----10---|----5---|
G |----5---|----3---|----8----|----5---|
D |----5---|----3---|----10---|----5---|    x4
A |----3---|----1---|----8----|----3---|
E |--------|--------|---------|--------|



    -| Same Chords As Chorus In The Background |-
e |-----------------------------------------------------------------------------------------|
B |-11-8-11-8-11-8-11-8-11-11-8-11-8-11b13-11-8---------------------------------------------|
G |---------------------------------------------10-8-10-8-10-8-10-10b11-10-8----------------|
D |---------------------------------------------------------------------------10-8h10-------|
A |-----------------------------------------------------------------------------------------|
E |-----------------------------------------------------------------------------------------|


e |-----------------------------------------------------------------------------------------|
B |-11-8-11-8-11-8-11-8-11b13-11-8---8------------------------------------------------------|
G |-------------------------------10---10-8------------8-10-10b11r10-8----------------------|
D |-----------------------------------------10--8-8h10---------------10-8h10----------------|
A |-----------------------------------------------------------------------------------------|
E |-----------------------------------------------------------------------------------------|



e |------------------------------------1----1----|
B |------------------------------------3----1----|
G |------------------------------------3----2----|
D |---5--3-----------------------------3----3----|
A |----------5-------5--3--1-----------1----3----|
E |-----------------------------------------1----|


e |---------------------------|           |------------------|
B |---------------------------|           |------------------|
G |---------------------------|           |------------------|
D |---5---5-------3-----------|    x3     |---5---5-----3----|
A |-------------5---5-3-------|           |------------5-----|
E |---------------------------|           |------------------|

http://www.usroyaltymusic.com/
http://en.wikipedia.org/wiki/U.S._Royalty
Tap to rate this tab
 
# A B C D E F G H I J K L M N O P Q R S T U V W X Y Z