Song name
# A B C D E F G H I J K L M N O P Q R S T U V W X Y Z

Us - In The End tab

VERSE 1
(x2)
"One thing, I don't know why...."
e|-----------------------------------------------------------------|
B|------8-------8-------8-------8-------7-------7-------7-------7--|
G|----0-------0-------0-------0-------0-------0-------0-------0----|
D|-----------------------------------------------------------------|
A|-7-------7-------7-------7-------5-------5-------5-------5-------|
E|-----------------------------------------------------------------|
                                                                                 
e|-----------------------------------------------------------------|
B|------5-------5-------5-------5-------7-------7-------7-------7--|
G|----0-------0-------0-------0-------0-------0-------0-------0----|
D|-----------------------------------------------------------------|
A|-3-------3-------3-------3-------5-------5-------6-------6-------|
E|-----------------------------------------------------------------|

(3rd time)
"Didn't look out below"
e|------------------------------------------------------------------|
B|------8-------8-------8-------8-----------------------------------|
G|----0-------0-------0-------0---------8-------8-------8-------8---|
D|------------------------------------9-------9-------9-------9-----|
A|-7-------7-------7-------7----------------------------------------|
E|---------------------------------7-------7-------7-------7--------|

"Trying ot hold on..."
e|------------------------------------------------------------------|
B|------------------------------------------------------------------|
G|------9-------9--------9--------9--------11-------11--------------|
D|---10------10-------10-------10-------12-------12-----------------|
A|------------------------------------------------------------------|
E|-8-------8--------8--------8-------10-------10--------10~~--------|

"I kept everything inside..."
e|-----------------------------------------------------------------|
B|------8-------8-------8-------8-------7--------------------------|
G|----0-------0-------0-------0-------0----------------------------|
D|-----------------------------------------------------------------|
A|-7-------7-------7-------7-------5--------5\---------------------|
E|-----------------------------------------------------------------|

"What it meant to me..."
e|-----------------------------------------------------------------|
B|------5-------5-------5-------5-------7-------7------------------|
G|----0-------0-------0-------0-------0-------0--------------------|
D|-----------------------------------------------------------------|
A|-3-------3-------3-------3-------5-------5-------5~~-------------|
E|-----------------------------------------------------------------|


CHORUS
(x2)
"I tried so hard..."
e|-------0--------0--------0--------0--------0---------0---------0---------0-|
B|-----0--------0--------0--------3--------3---------3---------3---------3---|
G|---0--------0--------0--------0--------0---------0---------0---------0-----|
D|---------------------------------------------------------------------------|
A|---------------------------------------------------------------------------|
E|-0--------0--------0--------2--------3---------3---------3---------3-------|


e|-------2--------2--------2--------2-|------0---------0---------0---------0-|
B|-----3--------3--------3--------3---|----3---------3---------3---------3---|
G|---2--------2--------2--------2-----|--0---------0---------0---------0-----|
D|-0--------0--------0--------0-------|--------------------------------------|
A|------------------------------------|3---------3---------3---------3-------|
E|------------------------------------|--------------------------------------|

        (2nd time ending)
        e|-------0-|
        B|-----3---|
        G|---0-----|     (7x)Let last note ring
        D|---------|
        A|-3-------|
        E|---------|


Verse 2
"One thing, I don't...."
e|-----------------------------------------|
B|------8-------8-------8-------8----------|
G|----0-------0-------0-------0------------|
D|-----------------------------------------|
A|-7-------7-------7-------7---------5\----|
E|-----------------------------------------|

"Keep that in mind...."
e|-----------------------------------------------------------------|
B|------5-------5-------5-------5-------7-------7-------7-------7--|
G|----0-------0-------0-------0-------0-------0-------0-------0----|
D|-----------------------------------------------------------------|
A|-3-------3-------3-------3-------5-------5-------6-------6-------|
E|-----------------------------------------------------------------|

"In spite of the way...."
e|-----------------------------------------------------------------|
B|------8-------8-------8-------8-------7-------7-------7-------7--|
G|----0-------0-------0-------0-------0-------0-------0-------0----|
D|-----------------------------------------------------------------|
A|-7-------7-------7-------7-------5-------5-------5-------5-------|
E|-----------------------------------------------------------------|
                                                                                 
e|-----------------------------------------------------------------|
B|------5-------5-------5-------5-------7-------7-------7-------7--|
G|----0-------0-------0-------0-------0-------0-------0-------0----|
D|-----------------------------------------------------------------|
A|-3-------3-------3-------3-------5-------5-------6-------6-------|
E|-----------------------------------------------------------------|

"Things aren't...."                        "You wouldn't even..."
e|----------------------------------------|------------------------|
B|------8-------8-------8-------8---------|------------------------|
G|----0-------0-------0-------0-----------|---------4-5-4----------|
D|----------------------------------------|-----5-7-------7-5-4-5~~|
A|-7-------7-------7-------7---------5~~--|-5-7--------------------|
E|----------------------------------------|------------------------|

"Not that you knew me..."
e|-----------------------------------------------------------------|
B|------5-------5-------5-------5-------7-------7-------7-------7--|
G|----0-------0-------0-------0-------0-------0-------0-------0----|
D|-----------------------------------------------------------------|
A|-3-------3-------3-------3-------5-------5-------6-------6-------|
E|-----------------------------------------------------------------|

"I kept everything inside...."
e|-----------------------------------------------------------------|
B|------8-------8-------8-------8-------7--------------------------|
G|----0-------0-------0-------0-------0----------------------------|
D|-----------------------------------------------------------------|
A|-7-------7-------7-------7-------5--------5\---------------------|
E|-----------------------------------------------------------------|

"What it meant to me...."
e|-----------------------------------------------------------------|
B|------5-------5-------5-------5-------7-------7------------------|
G|----0-------0-------0-------0-------0-------0--------------------|
D|-----------------------------------------------------------------|
A|-3-------3-------3-------3-------5-------5-------5~~-------------|
E|-----------------------------------------------------------------|


 ________________
|                |
| repeat CHORUS  |
|________________|



BRIDGE/Outro
(2x)

"I put my trust..." 
e|-----------------------------------------------------------------|
B|------8-------8-------8-------8-------7-------7-------7-------7--|
G|----0-------0-------0-------0-------0-------0-------0-------0----|
D|-----------------------------------------------------------------|
A|-7-------7-------7-------7-------5-------5-------5-------5-------|
E|-----------------------------------------------------------------|
                                                                                 
e|-----------------------------------------------------------------|
B|------5-------5-------5-------5-------7-------7-------7-------7--|
G|----0-------0-------0-------0-------0-------0-------0-------0----|
D|-----------------------------------------------------------------|
A|-3-------3-------3-------3-------5-------5-------6-------6-------|
E|-----------------------------------------------------------------|  
        2nd time End on                                                                  
        e|---------------|
        B|------7--------|
        G|----0----------|
        D|---------------|
        A|-5-------5~~---|
        E|---------------|

"I put my trust"                                   
e|-0--00-0-00-0-00-0000-0-00-0-00-0-00-0000-0-00-0-00-0-00-0000-|    
B|-0--00-0-00-0-00-0000-0-00-0-00-0-00-0000-0-00-0-00-0-00-0000-|    
G|-9--99-9-99-9-99-9999-7-77-7-77-7-77-7777-5-55-5-55-5-55-5555-|(2x) 
D|-9--99-9-99-9-99-9999-7-77-7-77-7-77-7777-5-55-5-55-5-55-5555-|    
A|-7--77-7-77-7-77-7777-5-55-5-55-5-55-5555-3-33-3-33-3-33-3333-|    
E|--------------------------------------------------------------|     
        
        END ON
        e|-0-|
        B|-0-|
        G|-4-|
        D|-4-| STRUM A FEW TIMES
        A|-2-|
        E|---|


CHORUS 2
"I tried so hard..."
e|-------0~~|------------0~~|-------2~~|-------0~~|
B|-----0~~--|----------3~~--|-----3~~--|-----3~~--|
G|---0~~----|--------0~~----|---2~~----|---0~~----|
D|----------|---------------|-0~~------|----------|
A|----------|---------------|----------|-3~~------|
E|-0~~------|-2----3~~------|----------|----------|

e|-------0~~|------------0~~|-------2~~|------------0~~|
B|-----0~~--|----------3~~--|-----3~~--|----------3~~--|
G|---0~~----|--------0~~----|---2~~----|--------0~~----|
D|----------|---------------|-0~~------|---------------|
A|----------|---------------|----------|-0----3~~------|
E|-0~~------|-2----3~~------|----------|---------------|
        
        END ON 
        e|--0~~|
        B|--3~~|
        G|--0~~|
        D|--x--|
        A|--3~~|
        E|-----|



KEY:
~ Let ring
\ Slide down


Tap to rate this tab
 
# A B C D E F G H I J K L M N O P Q R S T U V W X Y Z