Song name
# A B C D E F G H I J K L M N O P Q R S T U V W X Y Z

Us3 - Cantaloop tab

Link: http://www.us3.com/

CANTALOOP (= Cantaloupe Island) by Herbie Hanncock and Us3

Rythm Guitar

      Fm                      4x   Db                      4x
E||---------------------------||---------------------------||
B||------1--3-----4----3/-1---||---------------------------||
G||*-----1--3-----5----3/-1--*||*-----4/-6--6/-8----6--6--*||
D||*-------------------------*||*-----6/-8--6/-9----8/-6--*||
A||------------3--------------||---4-----------------------||
E||---1-----------------------||---------------------------||


   Dm7add11           4x   Fm                      3x
----------------------||---------------------------||
---6------6-----------||------1--3-----4----3/-1---||
*--5------5----------*||*-----1--3-----5----3/-1--*||
*--5------5----------*||*-------------------------*||
---5------5-----------||------------3--------------||
----------------------||---1-----------------------||


  Fm                                                             
--1----------------|
--1----------------|
--1----------------|
-------------------|
-------------------|
--1----------------|




Lead Guitar - Theme

                             Fm                      
E||------------------------||-------------------------|
B||------------------------||------------9/-11--11----|
G||---------------10--10---||--------10---------------|
D||------------------------||------------6/-8---8-----|
A||---------------8---8----||--------8----------------|
E||------------------------||-------------------------|


                                              
--------------------------|------------------|
--------9--11/-13---------|------------------|
-------------------8/-10--|------------------|
--------6--8/--10---------|------------------|
-------------------6/-8---|------------------|
--------------------------|------------------|


                         Db7                     
----------------------|-------------------------|
----------------------|------------9/-11--11----|
--------------10--10--|--------10---------------|
----------------------|------------6/-8---8-----|
--------------8---8---|--------8----------------|
----------------------|-------------------------|


                                              
--------------------------|------------------|
--------9--11/-13---------|------------------|
-------------------8/-10--|------------------|
--------6--8/--10---------|------------------|
-------------------6/-8---|------------------|
--------------------------|------------------|


                                 Dm7add11             
----------------11--------11--|----------------------|
----------12/13-----12/13-----|----------------------|
----------------8---------8---|--10------10----------|
----------9/-10-----9/-10-----|----------------------|
------------------------------|--8-------8-----------|
------------------------------|----------------------|


                                                      
----------------11--------11--|----------------------|
----------12/13-----12/13-----|----------------------|
----------------8---------8---|--10------10----------|
----------9/-10-----9/-10-----|----------------------|
------------------------------|--8-------8-----------|
------------------------------|----------------------|


  Fm                                   
------------------|------------------||
------------------|------------------||
------------------|------------------||
------------------|------------------||
------------------|------------------||
------------------|------------------||
Tap to rate this tab
# A B C D E F G H I J K L M N O P Q R S T U V W X Y Z