Song name
# A B C D E F G H I J K L M N O P Q R S T U V W X Y Z

Used - Dans Alphabet Song tab

This is a song by the usedŐs drummer Dan whiteside
It is from  a video called dan's alphabeth song on youtube
Hope you like it

1rst Verse
-------------------------------------------------|
-------------------------------------------------|
-------------------------------------------------|
-------------------------------------------------|
------------0-0-2-4------------0-0-2-4-----------|
---0-0-2-4------------0-0-2-4--------------------|

I think 3 times then . . .

Chorus
-----------------------|
-----------------------|
--------4--------------|
---2---4----4----7-----|
---2---2----4----7-----|
---0---------2----5----|

 x2 times

Interlude
------------------      ------------------        -----------------|
------------------      ------------------        -----------------|
------------------x1  ------------------ x2   ---------------------|
------------------      ------------------       ------------------|
----------0-0-2-4-   -----------0-0-2-5    --------0-0-2/11--------|
-0-0-2-4----------   --0-0-2-4---------    0-0-2-4-----------------|

2nd Verse
-------------------------------------------------|
-------------------------------------------------|
-------------------------------------------------|
-------------------------------------------------|
------------0-0-2-5------------0-0-2-5-----------|
---0-0-2-4------------0-0-2-4--------------------|

x2 times

Chorus
------------------------|
------------------------|
-------4----------------|
---2---4---4---7--------|
---2---2----4---7-------|
---0-------2---5--------|
6 times
the fith time playing once the chord
the sixth time playing palm muted until the third chord


Chorus variation

---x---x---x----x-----           --0---2---x----5----------|
---8---x---x----x-----    and    --0---2---x----5----------|
---9---x---11---x-----   then    --0---4---x----5----------|
---9---9---11---7-----   change  --2---4---4----7----------|
---7---9----9----7------   back   --2---2---4----7---------|
---x---7---x----5------    to    --0---x---2----5----------|


end on Em open chord
Tap to rate this tab
# A B C D E F G H I J K L M N O P Q R S T U V W X Y Z