Song name
# A B C D E F G H I J K L M N O P Q R S T U V W X Y Z

Used - Devil Beside You tab

Help us improve GuitareTab! Take a short survey!
The Used
"Devil Beside You"

This is the song "Devil Beside You" by THE USED. It is off their new album Shallow 
only available on iTunes.

Tuning:

Guitar I   = DADGBE
Guitar II  = DADGBE
Guitar III = DADGBE


Intro

Guitar I

Riff 1
E-12/21-----------------12/17-------------------------17/21----------|
B-----------------------^^^^^-------------------------^^^^^----------|
G------------Octave Pedal pushed down---------Octave Pedal Release---|
D--------------------------------------------------------------------|
A--------------------------------------------------------------------|
D--------------------------------------------------------------------|

E-12/21-----------------12/17-------------------------17/21----------|
B-----------------------^^^^^-------------------------^^^^^----------|
G------------Octave Pedal pushed down---------Octave Pedal Release---|
D--------------------------------------------------------------------|
A--------------------------------------------------------------------|
D--------------------------------------------------------------------|

Guitar II
This comes in as Guitar I finishes Riff 1. If you play right handed, put your right
finger lightly over the strings on the 12th fret. With your left hand, tap the following
You need to put on an echo with your amp if possible. Guitar I continues Riff 1 while
II plays this:

Riff 1
E--------------------------------------------------------------------|
B--------------------------------------------------------------------|
G-----5-7-----5-7---7------5-7-----5-7---7---------------------------|
D-5-7-----5-7-----5----5-7-----5-7-----5-----------------------------|
A--------------------------------------------------------------------|
D--------------------------------------------------------------------|

Guitar III
As Guitar I and Guitar II are finishing Riff 1, Guitar III plays the following just
the Pre Verse.


E--------------------------------------------------------------------|
B--------------------------------------------------------------------|
G--------------------------------------------------------------------|
D-12-12-12--12\5-----------------------------------------------------|
A-12-12-12--12\5-----------------------------------------------------|
D-12-12-12--12\5-----------------------------------------------------|
PM** ** **


Pre Verse


Guitar I

E--------------------------------------------------------------------|
B--------------------------------------------------------------------|
G--------------------------------------------------------------------|
D-5-5-5-5-5-5-5-5-9-9-9-9-9-9-9-9------------------------------------|
A-5-5-5-5-5-5-5-5-9-9-9-9-9-9-9-9------------------------------------|
D-5-5-5-5-5-5-5-5-9-9-9-9-9-9-9-9------------------------------------|
PM* * * * * * * * * * * * * * * *

Guitar II

E--------------------------------------------------------------------|
B--------------------------------------------------------------------|
G-14-14-14-14-14-14\12--11\9/11--------------------------------------|
D-x--x--x--x--x--x-\x---x-\x/x---------------------------------------|
A-12-12-12-12-12-12\10--9-\7/9---------------------------------------|
D--------------------------------------------------------------------|

Guitar I

E--------------------------------------------------------------------|
B--------------------------------------------------------------------|
G--------------------------------------------------------------------|
D-5-5-5-5-5-5-5-5-9-9-9-9-9-9-9-9------------------------------------|
A-5-5-5-5-5-5-5-5-9-9-9-9-9-9-9-9------------------------------------|
D-5-5-5-5-5-5-5-5-9-9-9-9-9-9-9-9------------------------------------|
PM* * * * * * * * * * * * * * * *

Guitar II

E--------------------------------------------------------------------|
B--------------------------------------------------------------------|
G-14-14-14-16\-11-11\9\7---------------------------------------------|
D-x--x--x--x-\-x--x-\x\x---------------------------------------------|
A-12-12-12-14\-9--9-\7\5---------------------------------------------|
D--------------------------------------------------------------------|


Verse 1


Guitar I

E--------------------------------------------------------------------|
B--------------------------------------------------------------------|
G--------------------------------------------------------------------|
D-5-5-5-5-5-5-5-5-9-9-9-9-9-9-9-9-5-5-5-5-5-5-5-5-9-9-9-9-9-9-9-9----|
A-5-5-5-5-5-5-5-5-9-9-9-9-9-9-9-9-5-5-5-5-5-5-5-5-9-9-9-9-9-9-9-9----|
D-5-5-5-5-5-5-5-5-9-9-9-9-9-9-9-9-5-5-5-5-5-5-5-5-9-9-9-9-9-9-9-9----|
PM* * * * * * * * * * * * * * * * * * * * * * * * * * * * * * * *

Guitar II

E--------------------------------------------------------------------|
B--------------------------------12-----12---------------------------|
G-11-14-11---14-11--11--------11----11--14-11-12\--------------------|
D---------12-----------14-12-----------------------------------------|
A--------------------------------------------------------------------|
D--------------------------------------------------------------------|

Guitar I

E--------------------------------------------------------------------|
B--------------------------------------------------------------------|
G--------------------------------------------------------------------|
D-5-5-5-5-5-5-5-5-9-9-9-9-9-9-9-9--12\0------------------------------|
A-5-5-5-5-5-5-5-5-9-9-9-9-9-9-9-9--12\0------------------------------|
D-5-5-5-5-5-5-5-5-9-9-9-9-9-9-9-9--12\0------------------------------|
PM* * * * * * * * * * * * * * * *

Guitar II

E--------------------------------------------------------------------|
B--------------------------------------------------------------------|
G-11-14-11---14-11---------------------------------------------------|
D---------12--------7-/12\0------------------------------------------|
A-------------------7-/12\0------------------------------------------|
D-------------------7-/12\0------------------------------------------|

Guitar I

E--------------------------------------------------------------------|
B--------------------------------------------------------------------|
G--------------------------------------------------------------------|
D--7-7-7-7-7-7-7-7-7-7-7-7-7-7-7-7-----------------------------------|
A--7-7-7-7-7-7-7-7-7-7-7-7-7-7-7-7-----------------------------------|
D--7-7-7-7-7-7-7-7-7-7-7-7-7-7-7-7-----------------------------------|

Guitar II

E--------------------------------------------------------------------|
B--------------------------------------------------------------------|
G--9-9-9-9-9-9-9-9-9-9-9-9-9-9-9-9-----------------------------------|
D--x-x-x-x-x-x-x-x-x-x-x-x-x-x-x-x-----------------------------------|
A--7-7-7-7-7-7-7-7-7-7-7-7-7-7-7-7-----------------------------------|
D--------------------------------------------------------------------|

Guitar I

E--------------------------------------------------------------------|
B--------------------------------------------------------------------|
G--------------------------------------------------------------------|
D-5-5-5-5-5-5-5-5-9-9-9-9-9-9-9-9-5-5-5-5-5-5-5-5-9-9-9-9-9-9-9-9----|
A-5-5-5-5-5-5-5-5-9-9-9-9-9-9-9-9-5-5-5-5-5-5-5-5-9-9-9-9-9-9-9-9----|
D-5-5-5-5-5-5-5-5-9-9-9-9-9-9-9-9-5-5-5-5-5-5-5-5-9-9-9-9-9-9-9-9----|
PM* * * * * * * * * * * * * * * * * * * * * * * * * * * * * * * *

Guitar II

E--------------------------------------------------------------------|
B--------------------------------12-----12---------------------------|
G-11-14-11---14-11--11--------11----11--14-11-12\--------------------|
D---------12-----------14-12-----------------------------------------|
A--------------------------------------------------------------------|
D--------------------------------------------------------------------|

Guitar III

E--------------------------------------------------------------------|
B--------------------------------------------------------------------|
G-14-14-14-14-14-14/12-11/9/5--14-14-14--16\--9--11-12---------------|
D-x--x--x--x--x--x-/x--x-/x/x--x--x--x---x-\--x--x--x----------------|
A-12-12-12-12-12-12/10-9-/7/5--12-12-12--14\--7--9--10---------------|
D--------------------------------------------------------------------|


Guitar I

E--------------------------------------------------------------------|
B--------------------------------------------------------------------|
G--------------------------------------------------------------------|
D-5-5-5-5-5-5-5-5-9-9-9-9-9-9-9-9--12\0------------------------------|
A-5-5-5-5-5-5-5-5-9-9-9-9-9-9-9-9--12\0------------------------------|
D-5-5-5-5-5-5-5-5-9-9-9-9-9-9-9-9--12\0------------------------------|
PM* * * * * * * * * * * * * * * *

Guitar II

E--------------------------------------------------------------------|
B--------------------------------------------------------------------|
G-11-14-11---14-11---------------------------------------------------|
D---------12--------7-/12\0------------------------------------------|
A-------------------7-/12\0------------------------------------------|
D-------------------7-/12\0------------------------------------------|

Guitar III

E--------------------------------------------------------------------|
B--------------------------------------------------------------------|
G-14-14-14-14-14\12--------------------------------------------------|
D-x--x--x--x--x-\x---------------------------------------------------|
A-12-12-12-12-12\10--------------------------------------------------|
D--------------------------------------------------------------------|


Pre Chorus


Guitar I

E--------------------------------------------------------------------|
B--------------------------------------------------------------------|
G--------------------------------------------------------------------|
D--7-7-7-7-7-7-7-7-7-7-7-7-7-7-7-7-----------------------------------|
A--7-7-7-7-7-7-7-7-7-7-7-7-7-7-7-7-----------------------------------|
D--7-7-7-7-7-7-7-7-7-7-7-7-7-7-7-7-----------------------------------|

Guitar II

E--------------------------------------------------------------------|
B--------------------------------------------------------------------|
G--9-9-9-9-9-9-9-9-9-9-9-9-9-9-9-9-----------------------------------|
D--x-x-x-x-x-x-x-x-x-x-x-x-x-x-x-x-----------------------------------|
A--7-7-7-7-7-7-7-7-7-7-7-7-7-7-7-7-----------------------------------|
D--------------------------------------------------------------------|

Guitar I

E--------------------------------------------------------------------|
B--------------------------------------------------------------------|
G--------------------------------------------------------------------|
D--7-7-7-7-7-7-7-7--7\0----------------------------------------------|
A--7-7-7-7-7-7-7-7--7\0----------------------------------------------|
D--7-7-7-7-7-7-7-7--7\0----------------------------------------------|
PM * * * * * * * *

Guitar II

E--------------------------------------------------------------------|
B--------------------------------------------------------------------|
G--9-9-9-9-9-9-9-9--9------------------------------------------------|
D--x-x-x-x-x-x-x-x--x------------------------------------------------|
A--7-7-7-7-7-7-7-7--7------------------------------------------------|
D--------------------------------------------------------------------|


Chorus


Guitar I

E--------------------------------------------------------------------|
B--------------------------------------------------------------------|
G--------------------------------------------------------------------|
D--5--5--5-5-5-0--0-0--0-0-0-9--9-9--9-9-9-0--0-0--0-0-0-------------|
A--5--5--5-5-5-0--0-0--0-0-0-9--9-9--9-9-9-0--0-0--0-0-0-------------|
D--5--5--5-5-5-0--0-0--0-0-0-9--9-9--9-9-9-0--0-0--0-0-0-------------|

Guitar II

E--------------------------------------------------------------------|
B--------------------------------------------------------------------|
G--7--7--7-7--7--7--7-7-7--4--4-4--4-4--7--7-7--7-7-7----------------|
D--x--x--x-x--x--x--x-x-x--x--x-x--x-x--x--x-x--x-x-x----------------|
A--5--5--5-5--5--5--5-5-5--2--2-2--2-2--5--5-5--5-5-5----------------|
D--------------------------------------------------------------------|

Guitar I

E--------------------------------------------------------------------|
B--------------------------------------------------------------------|
G--------------------------------------------------------------------|
D--5--5--5-5-5-0--0-0--0-0-0--7-7-7-7-7-7-7-7-7-7-7-7-7-7-7-7--------|
A--5--5--5-5-5-0--0-0--0-0-0--7-7-7-7-7-7-7-7-7-7-7-7-7-7-7-7--------|
D--5--5--5-5-5-0--0-0--0-0-0--7-7-7-7-7-7-7-7-7-7-7-7-7-7-7-7--------|

Guitar II

E--------------------------------------------------------------------|
B--------------------------------------------------------------------|
G--7--7--7-7--7--7--7-7-7--------------------------------------------|
D--x--x--x-x--x--x--x-x-x-----7-7-7-7-7-7-7-7-7-7-7-7-7-7-7-7--------|
A--5--5--5-5--5--5--5-5-5-----7-7-7-7-7-7-7-7-7-7-7-7-7-7-7-7--------|
D-----------------------------7-7-7-7-7-7-7-7-7-7-7-7-7-7-7-7--------|


Pre Verse


Guitar I

E--------------------------------------------------------------------|
B--------------------------------------------------------------------|
G--------------------------------------------------------------------|
D--5->>>>>>>>>>>>>>>>>>>>>-------------------------------7/12\0------|
A--5->>>>>>>>>>>>>>>>>>>>>-------------------------------7/12\0------|
D--5->>>>>>>>>>>>>>>>>>>>>-------------------------------7/12\0------|

Guitar II

E--------------------------------------------------------------------|
B--------------------------------------------------------------------|
G-14-14-14-14-14-14\12--11\9/11--14-14-14-16\--11-11\9\7-------------|
D-x--x--x--x--x--x-\x---x-\x/x---x--x--x--x-\--x--x-\x\x-------------|
A-12-12-12-12-12-12\10--9-\7/9---12-12-12-14\--9--9-\7\5-------------|
D--------------------------------------------------------------------|


Verse 2


Guitar I

E--------------------------------------------------------------------|
B--------------------------------------------------------------------|
G--------------------------------------------------------------------|
D-5-5-5-5-5-5-5-5-9-9-9-9-9-9-9-9-5-5-5-5-5-5-5-5-9-9-9-9-9-9-9-9----|
A-5-5-5-5-5-5-5-5-9-9-9-9-9-9-9-9-5-5-5-5-5-5-5-5-9-9-9-9-9-9-9-9----|
D-5-5-5-5-5-5-5-5-9-9-9-9-9-9-9-9-5-5-5-5-5-5-5-5-9-9-9-9-9-9-9-9----|
PM* * * * * * * * * * * * * * * * * * * * * * * * * * * * * * * *

Guitar II

E--------------------------------------------------------------------|
B--------------------------------12-----12---------------------------|
G-11-14-11---14-11--11--------11----11--14-11-12\--------------------|
D---------12-----------14-12-----------------------------------------|
A--------------------------------------------------------------------|
D--------------------------------------------------------------------|

Guitar I

E--------------------------------------------------------------------|
B--------------------------------------------------------------------|
G--------------------------------------------------------------------|
D-5-5-5-5-5-5-5-5-9-9-9-9-9-9-9-9--12\0------------------------------|
A-5-5-5-5-5-5-5-5-9-9-9-9-9-9-9-9--12\0------------------------------|
D-5-5-5-5-5-5-5-5-9-9-9-9-9-9-9-9--12\0------------------------------|
PM* * * * * * * * * * * * * * * *

Guitar II

E--------------------------------------------------------------------|
B--------------------------------------------------------------------|
G-11-14-11---14-11---------------------------------------------------|
D---------12--------7-/12\0------------------------------------------|
A-------------------7-/12\0------------------------------------------|
D-------------------7-/12\0------------------------------------------|

Guitar I

E--------------------------------------------------------------------|
B--------------------------------------------------------------------|
G--------------------------------------------------------------------|
D--7-7-7-7-7-7-7-7-7-7-7-7-7-7-7-7-----------------------------------|
A--7-7-7-7-7-7-7-7-7-7-7-7-7-7-7-7-----------------------------------|
D--7-7-7-7-7-7-7-7-7-7-7-7-7-7-7-7-----------------------------------|

Guitar II

E--------------------------------------------------------------------|
B--------------------------------------------------------------------|
G--9-9-9-9-9-9-9-9-9-9-9-9-9-9-9-9-----------------------------------|
D--x-x-x-x-x-x-x-x-x-x-x-x-x-x-x-x-----------------------------------|
A--7-7-7-7-7-7-7-7-7-7-7-7-7-7-7-7-----------------------------------|
D--------------------------------------------------------------------|

Guitar I

E--------------------------------------------------------------------|
B--------------------------------------------------------------------|
G--------------------------------------------------------------------|
D-5-5-5-5-5-5-5-5-9-9-9-9-9-9-9-9-5-5-5-5-5-5-5-5-9-9-9-9-9-9-9-9----|
A-5-5-5-5-5-5-5-5-9-9-9-9-9-9-9-9-5-5-5-5-5-5-5-5-9-9-9-9-9-9-9-9----|
D-5-5-5-5-5-5-5-5-9-9-9-9-9-9-9-9-5-5-5-5-5-5-5-5-9-9-9-9-9-9-9-9----|
PM* * * * * * * * * * * * * * * * * * * * * * * * * * * * * * * *

Guitar II

E--------------------------------------------------------------------|
B--------------------------------12-----12---------------------------|
G-11-14-11---14-11--11--------11----11--14-11-12\--------------------|
D---------12-----------14-12-----------------------------------------|
A--------------------------------------------------------------------|
D--------------------------------------------------------------------|

Guitar III

E--------------------------------------------------------------------|
B--------------------------------------------------------------------|
G-14-14-14-14-14-14/12-11/9/5--14-14-14--16\--9--11-12---------------|
D-x--x--x--x--x--x-/x--x-/x/x--x--x--x---x-\--x--x--x----------------|
A-12-12-12-12-12-12/10-9-/7/5--12-12-12--14\--7--9--10---------------|
D--------------------------------------------------------------------|


Guitar I

E--------------------------------------------------------------------|
B--------------------------------------------------------------------|
G--------------------------------------------------------------------|
D-5-5-5-5-5-5-5-5-9-9-9-9-9-9-9-9--12\0------------------------------|
A-5-5-5-5-5-5-5-5-9-9-9-9-9-9-9-9--12\0------------------------------|
D-5-5-5-5-5-5-5-5-9-9-9-9-9-9-9-9--12\0------------------------------|
PM* * * * * * * * * * * * * * * *

Guitar II

E--------------------------------------------------------------------|
B--------------------------------------------------------------------|
G-11-14-11---14-11---------------------------------------------------|
D---------12--------7-/12\0------------------------------------------|
A-------------------7-/12\0------------------------------------------|
D-------------------7-/12\0------------------------------------------|

Guitar III

E--------------------------------------------------------------------|
B--------------------------------------------------------------------|
G-14-14-14-14-14\12--------------------------------------------------|
D-x--x--x--x--x-\x---------------------------------------------------|
A-12-12-12-12-12\10--------------------------------------------------|
D--------------------------------------------------------------------|


Pre Chorus


Guitar I

E--------------------------------------------------------------------|
B--------------------------------------------------------------------|
G--------------------------------------------------------------------|
D--7-7-7-7-7-7-7-7-7-7-7-7-7-7-7-7-----------------------------------|
A--7-7-7-7-7-7-7-7-7-7-7-7-7-7-7-7-----------------------------------|
D--7-7-7-7-7-7-7-7-7-7-7-7-7-7-7-7-----------------------------------|

Guitar II

E--------------------------------------------------------------------|
B--------------------------------------------------------------------|
G--9-9-9-9-9-9-9-9-9-9-9-9-9-9-9-9-----------------------------------|
D--x-x-x-x-x-x-x-x-x-x-x-x-x-x-x-x-----------------------------------|
A--7-7-7-7-7-7-7-7-7-7-7-7-7-7-7-7-----------------------------------|
D--------------------------------------------------------------------|

Guitar I

E--------------------------------------------------------------------|
B--------------------------------------------------------------------|
G--------------------------------------------------------------------|
D--7-7-7-7-7-7-7-7--7\0----------------------------------------------|
A--7-7-7-7-7-7-7-7--7\0----------------------------------------------|
D--7-7-7-7-7-7-7-7--7\0----------------------------------------------|
PM * * * * * * * *

Guitar II

E--------------------------------------------------------------------|
B--------------------------------------------------------------------|
G--------------------------------------------------------------------|
D--7-7-7-7-7-7-7-7---------------------------------------------------|
A--7-7-7-7-7-7-7-7---------------------------------------------------|
D--7-7-7-7-7-7-7-7---------------------------------------------------|
PM * * * * * * * *


Chorus


Guitar I

E--------------------------------------------------------------------|
B--------------------------------------------------------------------|
G--------------------------------------------------------------------|
D--5--5--5-5-5-0--0-0--0-0-0-9--9-9--9-9-9-0--0-0--0-0-0-------------|
A--5--5--5-5-5-0--0-0--0-0-0-9--9-9--9-9-9-0--0-0--0-0-0-------------|
D--5--5--5-5-5-0--0-0--0-0-0-9--9-9--9-9-9-0--0-0--0-0-0-------------|

Guitar II

E--------------------------------------------------------------------|
B--------------------------------------------------------------------|
G--7--7--7-7--7--7--7-7-7--4--4-4--4-4--7--7-7--7-7-7----------------|
D--x--x--x-x--x--x--x-x-x--x--x-x--x-x--x--x-x--x-x-x----------------|
A--5--5--5-5--5--5--5-5-5--2--2-2--2-2--5--5-5--5-5-5----------------|
D--------------------------------------------------------------------|

Guitar I

E--------------------------------------------------------------------|
B--------------------------------------------------------------------|
G--------------------------------------------------------------------|
D--5--5--5-5-5-0--0-0--0-0-0--7-7-7-7-7-7-7-7-7-7-7-7-7-7-7-7--------|
A--5--5--5-5-5-0--0-0--0-0-0--7-7-7-7-7-7-7-7-7-7-7-7-7-7-7-7--------|
D--5--5--5-5-5-0--0-0--0-0-0--7-7-7-7-7-7-7-7-7-7-7-7-7-7-7-7--------|

Guitar II

E--------------------------------------------------------------------|
B--------------------------------------------------------------------|
G--7--7--7-7--7--7--7-7-7--------------------------------------------|
D--x--x--x-x--x--x--x-x-x-----7-7-7-7-7-7-7-7-7-7-7-7-7-7-7-7--------|
A--5--5--5-5--5--5--5-5-5-----7-7-7-7-7-7-7-7-7-7-7-7-7-7-7-7--------|
D-----------------------------7-7-7-7-7-7-7-7-7-7-7-7-7-7-7-7--------|

Guitar I

E--------------------------------------------------------------------|
B--------------------------------------------------------------------|
G--------------------------------------------------------------------|
D--5--5--5-5-5-0--0-0--0-0-0-9--9-9--9-9-9-0--0-0--0-0-0-------------|
A--5--5--5-5-5-0--0-0--0-0-0-9--9-9--9-9-9-0--0-0--0-0-0-------------|
D--5--5--5-5-5-0--0-0--0-0-0-9--9-9--9-9-9-0--0-0--0-0-0-------------|

Guitar II

E--------------------------------------------------------------------|
B--------------------------------------------------------------------|
G--7--7--7-7--7--7--7-7-7--4--4-4--4-4--7--7-7--7-7-7----------------|
D--x--x--x-x--x--x--x-x-x--x--x-x--x-x--x--x-x--x-x-x----------------|
A--5--5--5-5--5--5--5-5-5--2--2-2--2-2--5--5-5--5-5-5----------------|
D--------------------------------------------------------------------|

Guitar I

E--------------------------------------------------------------------|
B--------------------------------------------------------------------|
G--------------------------------------------------------------------|
D--5--5--5-5-5-0--0-0--0-0-0--7-7-7-7-7-7-7-7-7-7-7-7-7-7-7-7--------|
A--5--5--5-5-5-0--0-0--0-0-0--7-7-7-7-7-7-7-7-7-7-7-7-7-7-7-7--------|
D--5--5--5-5-5-0--0-0--0-0-0--7-7-7-7-7-7-7-7-7-7-7-7-7-7-7-7--------|

Guitar II

E--------------------------------------------------------------------|
B--------------------------------------------------------------------|
G--7--7--7-7--7--7--7-7-7-----9-9-9-9-9-9-9-9-9-9-9-9-9-9-9-9--------|
D--x--x--x-x--x--x--x-x-x-----x-x-x-x-x-x-x-x-x-x-x-x-x-x-x-x--------|
A--5--5--5-5--5--5--5-5-5-----7-7-7-7-7-7-7-7-7-7-7-7-7-7-7-7--------|
D--------------------------------------------------------------------|

Guitar I

E--------------------------------------------------------------------|
B--------------------------------------------------------------------|
G--------------------------------------------------------------------|
D--7-7-7-7-7-7-7-7-7-7-7-7-7-7-7-7-----------------------------------|
A--7-7-7-7-7-7-7-7-7-7-7-7-7-7-7-7-----------------------------------|
D--7-7-7-7-7-7-7-7-7-7-7-7-7-7-7-7-----------------------------------|

Guitar II

E--------------------------------------------------------------------|
B--------------------------------------------------------------------|
G--9-9-9-9-9-9-9-9-9-9-9-9-9-9-9-9-----------------------------------|
D--x-x-x-x-x-x-x-x-x-x-x-x-x-x-x-x-----------------------------------|
A--7-7-7-7-7-7-7-7-7-7-7-7-7-7-7-7-----------------------------------|
D--------------------------------------------------------------------|


Bridge


The Bridge involves a lot of guitar parts and they were difficult to figure out. What I
is not precise but it is the general idea of the bridge.


Guitar I

E--------------------------------------------------------------------|
B--------------------------------------------------------------------|
G--------------------------------------------------------------------|
D--0->>>>>>>>>>>>>>>>>>>>>>>>>>>>>>>---------------------------------|
A--0->>>>>>>>>>>>>>>>>>>>>>>>>>>>>>>---------------------------------|
D--0->>>>>>>>>>>>>>>>>>>>>>>>>>>>>>>---------------------------------|

Guitar II

E--------------------------------------------------------------------|
B--------------------------------------------------------------------|
G--------------------------------------------------------------------|
D--------------------------------------------------------------------|
A--5-5-5-5-5-5-5-5-5-5-5-5-5-5-4-4-4-4-4-4-4-4-4-4-4-4-4-4-----------|
D--------------------------------------------------------------------|
PM * * * * * * * * * * * * * * * * * * * * * * * * * * * *

Guitar III

E-------------------------------------------------------------------|
B-------------------------------------------------------------------|
G-------------------------------------------------------------------|
D------0---0-2b-------0---0-2b-----0---0-2b-------0---0-2b----------|
A--0-5---5------5-0-5---5------0-4---4------4-0-4---4------4--------|
D-------------------------------------------------------------------|

Guitar I

E-------------------------------------------------------------------|
B-------------------------------------------------------------------|
G-------------------------------------------------------------------|
D->>>>>>>>>>>>>>>>>>>>>>>>>>>>>>>-----------------------------------|
A->>>>>>>>>>>>>>>>>>>>>>>>>>>>>>>-----------------------------------|
D->>>>>>>>>>>>>>>>>>>>>>>>>>>>>>>-----------------------------------|

Guitar II

E-------------------------------------------------------------------|
B-------------------------------------------------------------------|
G-------------------------------------------------------------------|
D-------------------------------------------------------------------|
A--2-2-2-2-2-2-2-0-2-2-2-2-2-2-2-0-2-2-2-2-2-2-2-0-2-2-2-2-2-2-4-4--|
D-------------------------------------------------------------------|
PM * * * * * * * * * * * * * * * * * * * * * * * * * * * * * * * *

Guitar III

E-------------------------------------------------------------------|
B-------------------------------------------------------------------|
G-------------------------------------------------------------------|
D------0---0------------0---0------------0---0----------0---0---0---|
A--0-2---2---2-2b-0-0-2---2---2-2b-0-0-2---2---2-2b-0-2---2---4---4-|
D-------------------------------------------------------------------|

Guitar I

E---17--------------------17----------------------------------------|
B---15--------15----------14------15--------12----------------------|
G---14----------14--------14--------14------12----------------------|
D-------------------------------------------------------------------|
A-------------------------------------------------------------------|
D-------------------------------------------------------------------|

Guitar II

E--------------------------------------------------------------------|
B--------------------------------------------------------------------|
G--------------------------------------------------------------------|
D--------------------------------------------------------------------|
A--5-5-5-5-5-5-5-5-5-5-5-5-5-5-4-4-4-4-4-4-4-4-4-4-4-4-4-4-----------|
D--------------------------------------------------------------------|
PM * * * * * * * * * * * * * * * * * * * * * * * * * * * *

Guitar III

E-------------------------------------------------------------------|
B-------------------------------------------------------------------|
G-------------------------------------------------------------------|
D------0---0-2b-------0---0-2b-----0---0-2b-------0---0-2b----------|
A--0-5---5------5-0-5---5------0-4---4------4-0-4---4------4--------|
D-------------------------------------------------------------------|

Guitar I

E-------------------------------------------------------------------|
B-->>>>>>>>>>>>>>>>>>>>>>>>>>>>>>>>>>>>>>>>>>>>>>>>>>>>>>>>>>>>-----|
G-->>>>>>>>>>>>>>>>>>>>>>>>>>>>>>>>>>>>>>>>>>>>>>>>>>>>>>>>>>>>-----|
D-------------------------------------------------------------------|
A-------------------------------------------------------------------|
D-------------------------------------------------------------------|


Guitar II

E-------------------------------------------------------------------|
B-------------------------------------------------------------------|
G-------------------------------------------------------------------|
D-------------------------------------------------------------------|
A--2-2-2-2-2-2-2-0-2-2-2-2-2-2-2-0-2-2-2-2-2-2-2-0-2-2-2-2-2-2-4-4--|
D-------------------------------------------------------------------|
PM * * * * * * * * * * * * * * * * * * * * * * * * * * * * * * * *

Guitar III

E-------------------------------------------------------------------|
B-------------------------------------------------------------------|
G-------------------------------------------------------------------|
D------0---0------------0---0------------0---0----------0---0---0---|
A--0-2---2---2-2b-0-0-2---2---2-2b-0-0-2---2---2-2b-0-2---2---4---4-|
D-------------------------------------------------------------------|

Guitar I

E---17--------------------17----------------------------------------|
B---15--------15----------14------15--------12----------------------|
G---14----------14--------14--------14------12----------------------|
D-------------------------------------------------------------------|
A-------------------------------------------------------------------|
D-------------------------------------------------------------------|

Guitar II

E--------------------------------------------------------------------|
B--------------------------------------------------------------------|
G--------------------------------------------------------------------|
D--------------------------------------------------------------------|
A--5-5-5-5-5-5-5-5-5-5-5-5-5-5-4-4-4-4-4-4-4-4-4-4-4-4-4-4-----------|
D--------------------------------------------------------------------|
PM * * * * * * * * * * * * * * * * * * * * * * * * * * * *

Guitar III

E-------------------------------------------------------------------|
B-------------------------------------------------------------------|
G-------------------------------------------------------------------|
D------0---0-2b-------0---0-2b-----0---0-2b-------0---0-2b----------|
A--0-5---5------5-0-5---5------0-4---4------4-0-4---4------4--------|
D-------------------------------------------------------------------|

Guitar I

E-------------------------------------------------------------------|
B-->>>>>>>>>>>>>>>>>>>>>>>>>>>>>>>>>>>>>>>>>>>>>>>>>>>>>>>>>>>>-----|
G-->>>>>>>>>>>>>>>>>>>>>>>>>>>>>>>>>>>>>>>>>>>>>>>>>>>>>>>>>>>>-----|
D-------------------------------------------------------------------|
A-------------------------------------------------------------------|
D-------------------------------------------------------------------|


Guitar II

E-------------------------------------------------------------------|
B-------------------------------------------------------------------|
G-------------------------------------------------------------------|
D-------------------------------------------------------------------|
A--2-2-2-2-2-2-2-0-2-2-2-2-2-2-2-0-2-2-2-2-2-2-2-0-2-2-2-2-2-2-4-4--|
D-------------------------------------------------------------------|
PM * * * * * * * * * * * * * * * * * * * * * * * * * * * * * * * *

Guitar III

E-------------------------------------------------------------------|
B-------------------------------------------------------------------|
G-------------------------------------------------------------------|
D------0---0------------0---0------------0---0----------0---0---0---|
A--0-2---2---2-2b-0-0-2---2---2-2b-0-0-2---2---2-2b-0-2---2---4---4-|
D-------------------------------------------------------------------|

Guitar I

E---17--------------------17----------------------------------------|
B---15--------15----------14------15--------12----------------------|
G---14----------14--------14--------14------12----------------------|
D-------------------------------------------------------------------|
A-------------------------------------------------------------------|
D-------------------------------------------------------------------|

Guitar II

E--------------------------------------------------------------------|
B--------------------------------------------------------------------|
G--------------------------------------------------------------------|
D--------------------------------------------------------------------|
A--5-5-5-5-5-5-5-5-5-5-5-5-5-5-4-4-4-4-4-4-4-4-4-4-4-4-4-4-----------|
D--------------------------------------------------------------------|
PM * * * * * * * * * * * * * * * * * * * * * * * * * * * *

Guitar III

E-------------------------------------------------------------------|
B-------------------------------------------------------------------|
G-------------------------------------------------------------------|
D------0---0-2b-------0---0-2b-----0---0-2b-------0---0-2b----------|
A--0-5---5------5-0-5---5------0-4---4------4-0-4---4------4--------|
D-------------------------------------------------------------------|

Guitar I

E-------------------------------------------------------------------|
B-->>>>>>>>>>>>>>>>>>>>>>>>>>>>>>>>>>>>>>>>>>>>>>>>>>>>>>>>>--------|
G-->>>>>>>>>>>>>>>>>>>>>>>>>>>>>>>>>>>>>>>>>>>>>>>>>>>>>>>>>---7----|
D--------------------------------------------------------------7----|
A--------------------------------------------------------------5----|
D-------------------------------------------------------------------|


Guitar II

E-------------------------------------------------------------------|
B-------------------------------------------------------------------|
G---------------------------------------------------------------7---|
D---------------------------------------------------------------7---|
A--2-2-2-2-2-2-2-0-2-2-2-2-2-2-2-0-2-2-2-2-2-2-2-0-2-2-2-2-2-2--5---|
D-------------------------------------------------------------------|
PM * * * * * * * * * * * * * * * * * * * * * * * * * * * * * *

Guitar III

E-------------------------------------------------------------------|
B-------------------------------------------------------------------|
G-------------------------------------------------------------------|
D------0---0------------0---0------------0---0----------0---0---0---|
A--0-2---2---2-2b-0-0-2---2---2-2b-0-0-2---2---2-2b-0-2---2---4---4-|
D-------------------------------------------------------------------|

Guitar I

E-------------------------------------------------------------------|
B-------------------------------------------------------------------|
G-------------------------------------------------------------------|
D-------------------------------------------------------------------|
A-------------------------------------------------------------------|
D--5-----5---5-----5---5---5-5-2---2---2-----2---2---2---2--2-------|

Guitar II

E-------------------------------------------------------------------|
B-------------------------------------------------------------------|
G-------------------------------------------------------------------|
D------0---0-2b-------0---0-2b-----0---0-2b-------0---0-2b----------|
A--0-5---5------5-0-5---5------0-4---4------4-0-4---4------4--------|
D-------------------------------------------------------------------|

Guitar I

E-------------------------------------------------------------------|
B-------------------------------------------------------------------|
G---------------------------7-7---7--7---7-7-7-7-7-7-7-7-7-7-7-7-7--|
D---------------------------x-x---x--x---x-x-x-x-x-x-x-x-x-x-x-x-x--|
A--2--2---2----2--2--2--2-2-5-5---5--5---5-5-5-5-5-5-5-5-5-5-5-5-5--|
D---------------------------0-0---0--0---0-0-0-0-0-0-0-0-0-0-0-0-0--|

Guitar II

E-------------------------------------------------------------------|
B-------------------------------------------------------------------|
G-------------------------------------------------------------------|
D------0---0------------0---0-0-0-0-0-0-0-0-0-0-0-0-0-0-0-0-0-0-0---|
A--0-2---2---2-2b-0-0-2---2-0-0-0-0-0-0-0-0-0-0-0-0-0-0-0-0-0-0-0---|
D---------------------------0-0-0-0-0-0-0-0-0-0-0-0-0-0-0-0-0-0-0---|


Chorus


Chorus


Guitar I

E--------------------------------------------------------------------|
B--------------------------------------------------------------------|
G--------------------------------------------------------------------|
D--5--5--5-5-5-0--0-0--0-0-0-9--9-9--9-9-9-0--0-0--0-0-0-------------|
A--5--5--5-5-5-0--0-0--0-0-0-9--9-9--9-9-9-0--0-0--0-0-0-------------|
D--5--5--5-5-5-0--0-0--0-0-0-9--9-9--9-9-9-0--0-0--0-0-0-------------|

Guitar II

E--------------------------------------------------------------------|
B--------------------------------------------------------------------|
G--7--7--7-7--7--7--7-7-7--4--4-4--4-4--7--7-7--7-7-7----------------|
D--x--x--x-x--x--x--x-x-x--x--x-x--x-x--x--x-x--x-x-x----------------|
A--5--5--5-5--5--5--5-5-5--2--2-2--2-2--5--5-5--5-5-5----------------|
D--------------------------------------------------------------------|

Guitar I

E--------------------------------------------------------------------|
B--------------------------------------------------------------------|
G--------------------------------------------------------------------|
D--5--5--5-5-5-0--0-0--0-0-0--7-7-7-7-7-7-7-7-7-7-7-7-7-7-7-7--------|
A--5--5--5-5-5-0--0-0--0-0-0--7-7-7-7-7-7-7-7-7-7-7-7-7-7-7-7--------|
D--5--5--5-5-5-0--0-0--0-0-0--7-7-7-7-7-7-7-7-7-7-7-7-7-7-7-7--------|

Guitar II

E--------------------------------------------------------------------|
B--------------------------------------------------------------------|
G--7--7--7-7--7--7--7-7-7--------------------------------------------|
D--x--x--x-x--x--x--x-x-x-----7-7-7-7-7-7-7-7-7-7-7-7-7-7-7-7--------|
A--5--5--5-5--5--5--5-5-5-----7-7-7-7-7-7-7-7-7-7-7-7-7-7-7-7--------|
D-----------------------------7-7-7-7-7-7-7-7-7-7-7-7-7-7-7-7--------|

Guitar I

E--------------------------------------------------------------------|
B--------------------------------------------------------------------|
G--------------------------------------------------------------------|
D--5--5--5-5-5-0--0-0--0-0-0-9--9-9--9-9-9-0--0-0--0-0-0-------------|
A--5--5--5-5-5-0--0-0--0-0-0-9--9-9--9-9-9-0--0-0--0-0-0-------------|
D--5--5--5-5-5-0--0-0--0-0-0-9--9-9--9-9-9-0--0-0--0-0-0-------------|

Guitar II

E--------------------------------------------------------------------|
B--------------------------------------------------------------------|
G--7--7--7-7--7--7--7-7-7--4--4-4--4-4--7--7-7--7-7-7----------------|
D--x--x--x-x--x--x--x-x-x--x--x-x--x-x--x--x-x--x-x-x----------------|
A--5--5--5-5--5--5--5-5-5--2--2-2--2-2--5--5-5--5-5-5----------------|
D--------------------------------------------------------------------|

Guitar I

E--------------------------------------------------------------------|
B--------------------------------------------------------------------|
G--------------------------------------------------------------------|
D--5--5--5-5-5-0--0-0--0-0-0--7-7-7-7-7-7-7-7-7-7-7-7-7-7-7-7--------|
A--5--5--5-5-5-0--0-0--0-0-0--7-7-7-7-7-7-7-7-7-7-7-7-7-7-7-7--------|
D--5--5--5-5-5-0--0-0--0-0-0--7-7-7-7-7-7-7-7-7-7-7-7-7-7-7-7--------|

Guitar II

E--------------------------------------------------------------------|
B--------------------------------------------------------------------|
G--7--7--7-7--7--7--7-7-7-----9-9-9-9-9-9-9-9-9-9-9-9-9-9-9-9--------|
D--x--x--x-x--x--x--x-x-x-----x-x-x-x-x-x-x-x-x-x-x-x-x-x-x-x--------|
A--5--5--5-5--5--5--5-5-5-----7-7-7-7-7-7-7-7-7-7-7-7-7-7-7-7--------|
D--------------------------------------------------------------------|

Guitar I

E--------------------------------------------------------------------|
B--------------------------------------------------------------------|
G--------------------------------------------------------------------|
D--7-7-7-7-7-7-7-7-7-7-7-7-7-7-7-7-----------------------------------|
A--7-7-7-7-7-7-7-7-7-7-7-7-7-7-7-7-----------------------------------|
D--7-7-7-7-7-7-7-7-7-7-7-7-7-7-7-7-----------------------------------|

Guitar II

E--------------------------------------------------------------------|
B--------------------------------------------------------------------|
G--9-9-9-9-9-9-9-9-9-9-9-9-9-9-9-9-----------------------------------|
D--x-x-x-x-x-x-x-x-x-x-x-x-x-x-x-x-----------------------------------|
A--7-7-7-7-7-7-7-7-7-7-7-7-7-7-7-7-----------------------------------|
D--------------------------------------------------------------------|


Outro


Guitar I

E--------------------------------------------------------------------|
B--------------------------------------------------------------------|
G--------------------------------------------------------------------|
D--0->>>>>>>>>>>>>>>>>>>>>>>>>>>>>>>>>>>>>>>>>>>>>>>>>>>>>>>>>>>>>>--|
A--0->>>>>>>>>>>>>>>>>>>>>>>>>>>>>>>>>>>>>>>>>>>>>>>>>>>>>>>>>>>>>>--|
D--0->>>>>>>>>>>>>>>>>>>>>>>>>>>>>>>>>>>>>>>>>>>>>>>>>>>>>>>>>>>>>>--|

Guitar II

E--------------------------------------------------------------------|
B--------------------------------------------------------------------|
G--7->>>>>>>>>>>>>>>>>>>>>>>>>>>>>-6->>>>>>>>>>>>>>>>>>>>>>>>>>>>>>--|
D--7->>>>>>>>>>>>>>>>>>>>>>>>>>>>>-7->>>>>>>>>>>>>>>>>>>>>>>>>>>>>>--|
A--5->>>>>>>>>>>>>>>>>>>>>>>>>>>>>-4->>>>>>>>>>>>>>>>>>>>>>>>>>>>>>--|
D--------------------------------------------------------------------|

Guitar I

E--------------------------------------------------------------------|
B--------------------------------------------------------------------|
G-x-x-x--------------------------------------------------------------|
D-x-x-x--------------------------------------------------------------|
A-x-x-x--------------------------------------------------------------|
D--------------------------------------------------------------------|

Guitar II

E--------------------------------------------------------------------|
B--------------------------------------------------------------------|
G--14-14-14-14-14\12--11\9/11--14-14-14-16\-11-11\9/11->>>>>>>>>>>>--|
D--x-x-x-x-x-x-x-\x---x-\x/x---x--x--x--x-\-x--x-\x/x-->>>>>>>>>>>>--|
A--12-12-12-12-12\10--9-\7/9---12-12-12-14\-9--9-\7/9-->>>>>>>>>>>>--|
D--------------------------------------------------------------------|

Guitar I

E--------------------------------------------------------------------|
B--------------------------------------------------------------------|
G--------------------------------------------------------------------|
D-------9-9-------9-9-------9-9------------9-9----------------9------|
A--0--9-----10-10-----10-10-----10-10--0-9-----10-10-10-10-10---10---|
D--------------------------------------------------------------------|

Guitar II

E--------------------------------------------------------------------|
B--------------------------------------------------------------------|
G-->>>>>>>>>>>>>>>>>>>>>>>>>>>>>>-11-11\9/11->>>>>>>>>>>>>-11-11\9/11|
D-->>>>>>>>>>>>>>>>>>>>>>>>>>>>>>-x--x-\x/x-->>>>>>>>>>>>>-x--x-\x/x-|
A-->>>>>>>>>>>>>>>>>>>>>>>>>>>>>>-9--9-\7/9-->>>>>>>>>>>>>-9--9-\7/9-|
D--------------------------------------------------------------------|

Guitar II

E------------------------------------|
B------------------------------------|
G->>>>>>>>>>>>>>>>>>>>>>>>>>>>>>-----|
D->>>>>>>>>>>>>>>>>>>>>>>>>>>>>>-----|
A->>>>>>>>>>>>>>>>>>>>>>>>>>>>>>-----|
D------------------------------------|

Tab Legend:

>  =  Let Ring
b  =  Bend
/  =  Slide Up
\  =  Slide Down
*  =  Palm Mute
Related for Devil Beside You tab