Guitaretab - guitar tabs
Song name
# A B C D E F G H I J K L M N O P Q R S T U V W X Y Z

Used - Sick Hearts tab

ok so now i'm going to put the other parts i know of this song 

======================
The Used - Sick Hearts
======================
Tabbed by: JosÚ Pedrero
Email: tcv.liar.liar@hotmail.com

Tunning: Drop D (DADGBE) (But can be played on Standard Tunning)

-*Intro (i can't figure out the first part but the second time it's like this)
Gtr1
e|----------------------------1212-10-9-|
B|--1212-10-1212-10-1212-1010-----------|
G|--------------------------------------|
D|--------------------------------------|
A|--------------------------------------|
D|--------------------------------------|

e|-------------------------------|
B|--1212-10-1212-10-7~---7h8p7~--|
G|-------------------------------|
D|-------------------------------|
A|-------------------------------|
D|-------------------------------|

e|----------------------------1212-10-9-|
B|--1212-10-1212-10-1212-1010-----------|
G|--------------------------------------|
D|--------------------------------------|
A|--------------------------------------|
D|--------------------------------------|


e|-----------------------------------|
B|--1212-10-1212-10-7~---7h8p7h8p7~--|
G|-----------------------------------|
D|-----------------------------------|
A|-----------------------------------|
D|-----------------------------------|

Gtr2
e|----------------|
B|----------------|
G|----------------|
D|-999-444-555555-| x3 
A|-999-555-555555-| 
D|-999-444-555555-|

e|------------------------|
B|------------------------|
G|------------------------|
D|-99x-77x-5~-----------5-| 
A|-99x-77x-5~5-5-5-5555-5-| 
D|-99x-77x-5~5-5-5-5555-5-|
PM           . . . .... 

-*Verse (I've only tabbed one guitar for this)
e|-------------------------------|
B|-------------------------------|
G|-------------------------------|
D|-------------------------------|
A|---4-5-7---5-7----7---/9-7-5-4-|
D|-9-------7----6-6--6-----------|
PM . .     .    . .  . 

e|--------------------------|
B|--------------------------|
G|--------------------------|
D|--------------------------|
A|---4-5-7---5-7------------|
D|-9-------7----6-6--6-6-6--|
PM . .     .    . .  . . .

e|-------------------------------|
B|-------------------------------|
G|-------------------------------|
D|-------------------------------|
A|---4-5-7---5-7----7---/9-7-5-4-|
D|-9-------7----6-6--6-----------|
PM . .     .    . .  . 

e|------------------------------|
B|------------------------------|
G|------------------------------|
D|---------------6------------6-|
A|---4-5-7---5-7-6-6-6-6-6666-6-|
D|-9-------7-----6-6-6-6-6666-6-|
PM . .     .       . . . .... 

-*Pre-Chorus

e|--------------|
B|--------------|
G|--------------|
D|-------555555-| 
A|-555555555555-| 
D|-555555555555-|
PM ......

-*Chorus
e|----------------|
B|----------------|
G|----------------|
D|-999-444-555555-| x3 
A|-999-555-555555-| 
D|-999-444-555555-|

e|------------------------|
B|------------------------|
G|------------------------|
D|-99x-77x-5~-----------5-| 
A|-99x-77x-5~5-5-5-5555-5-| 
D|-99x-77x-5~5-5-5-5555-5-|
PM           . . . .... 

-*Pre-Verse

e|-------------------------------|
B|-------------------------------|
G|-------------------------------|
D|-------------------------------|
A|---4-5-7---5-7----7---/9-7-5-4-|
D|-9-------7----6-6--6-----------|
PM . .     .    . .  . 
[ Tab from: http://www.guitaretab.com/u/used/104886.html ]
e|-----------------------------------|
B|-----------------(----------10-7~)-|◄-- That's played
G|-----------------(7h8p7h8p7------)-|by another guitar
D|-----------------------------------|
A|---4-5-7---5-7----7----------------|
D|-9-------7----6-6---6-6-6----------|
PM . .
-Repeat The Verse-
-Repeat The Pre-Chorus-

-*Second Chorus: Play it twice but both with different endings
e|----------------|
B|----------------|
G|----------------|
D|-999-444-555555-| x3 
A|-999-555-555555-| 
D|-999-444-555555-|

╗First Ending                   
e|----------------|     
B|----------------|     
G|----------------|     
D|-99x-77x-555555-|
A|-99x-77x-555555-| 
D|-99x-77x-555555-|
╗ Second Ending
e|----------|
B|----------|
G|----------|
D|-99x-77x--| 
A|-99x-77x--| 
D|-99x-77x--|
Just stop on the 7's and then go to the bridge

-*Bridge
e|-----------------------------|
B|-----------------------------|
G|-----------------------------|
D|-777777-999999-5555555555555-| x3 
A|-777777-999999-5555555555555-| 
D|-777777-999999-5555555555555-|

e|----------------|
B|----------------|
G|----------------|
D|-444444-555555--| x2
A|-555555-555555--| 
D|-444444-555555--|

-*Pre Chorus Variation
(Clean with Flanger but a wah-wah might work aswell)
e|--------------------------------|
B|--------------------------------|
G|--------------------------------|
D|--------------------------------|
A|---4-5-7---5-7-----7---/9-7-5-4-|
D|-9-------7-----6-6---6----------|
PM . . . . . . . . . . .  . . . .

e|--------------------------|
B|--------------------------|
G|--------------------------|
D|--------------------------|
A|---4-5-7---5-7------------|
D|-9-------7-----6~---------|
PM . . . . . . . . 

-*Last Chorus
e|----------------|
B|----------------|
G|----------------|
D|-999-444-555555-| x3 
A|-999-555-555555-| 
D|-999-444-555555-|
                
e|----------------|     
B|----------------|     
G|----------------|     
D|-99x-77x-555555-|
A|-99x-77x-555555-| 
D|-99x-77x-555555-|
Then
e|----------------|
B|----------------|
G|----------------|
D|-999-444-555555-| 
A|-999-555-555555-| 
D|-999-444-555555-|

e|---------------------|
B|---------------------|
G|---------------------|
D|-999-777-5-------5-5-|  
A|-999-777-5-5-5-5-5-5-| 
D|-999-777-5-5-5-5-5-5-|
PM           . . .

e|----------------|
B|----------------|
G|----------------|
D|-999-444-555555-| 
A|-999-555-555555-| 
D|-999-444-555555-|

e|----------------|     
B|----------------|     
G|----------------|     
D|-99x-77x-555555-|
A|-99x-77x-555555-| 
D|-99x-77x-555555-|

e|----------------------|     
B|----------------------|     
G|----------------------|     
D|-99x-77x-5---------5\-|
A|-99x-77x-5-5-5-5-5-5\-| 
D|-99x-77x-5-5-5-5-5-5\-|
PM           . . . .

-*Outro
e|-------------------------------|
B|-------------------------------|
G|-------------------------------|
D|-------------------------------|
A|---4-5-7---5-7----7---/9-7-5-4-|
D|-9-------7----6-6--6-----------|
PM . .     .    . .  .   

e|-----------------------------------|
B|----------------------------10-7~)-|◄-- That's played
G|-----------------(7h8p7h8p7--------|by another guitar
D|-----------------------------------|
A|---4-5-7---5-7----7----------------|
D|-9-------7----6-6---6-6-6----------|
PM . .     .    . .   . . .
 
e|--------------------------------|
B|--------------------------------|
G|--------------------------------|
D|--------------------------------|
A|---4-5-7---5-7-----7---/9-7-5-4-|
D|-9-------7-----6-6---6----------|
PM . .     .     . . . .  

e|---------------------|
B|---------------------|
G|---------------------|
D|---------------------|
A|---4-5-7---5-7-------|
D|-9-------7-----6-6~--|
PM . . . . . . . . 

Ok that's all
just rate it high :D

| /  slide up
| \  slide down
| h  hammer-on
| p  pull-off
| ~  vibrato
| +  harmonic
| x  Mute note
Related for Sick Hearts tab