Guitaretab - guitar tabs
Song name
# A B C D E F G H I J K L M N O P Q R S T U V W X Y Z

Used - Into My Web tab

Tabbed by: Mark Paul Bascos
From:Villasis Pangasinan

e-mail: mark.bascos@yahoo.com

This is my first tablature hope you love it,
Just sit, read, listen and enjoy tnx!
If you want more e-mail me at mark.bascos@yahoo.com
Thank You…


"Into My Web"
By:The Used

Intro:


Whoaaa oh, oh.Whoaaa oh, whoa.
e|-----4-----4---4-----2-----2---2-----0-----0---0-----|
B|-------5-----5---------2-----2---------0-----0-------|
G|--/6-----6-------6\4-----4-------4\2-----2-------0---|
D|-----------------------------------------------------|
A|-----------------------------------------------------|
D|-----------------------------------------------------|

Cont.
Whoaaa, whoa, whoa oh, oh
e|-----4-----4---4-----2-----2---2-----0---|
B|-------5-----5---------2-----2-------0---|
G|--/6-----6-------6\4-----4-------4\--2---|
D|-------------------------------------2---|
A|-------------------------------------0---|
D|-----------------------------------------|

Verse 1:

Guitar 1

I stopped to call you my little girl. I meant more. So much more.
e|----xxxxxxx----xxxxx-----xxxxxxxxxxx-----------------|
B|----xxxxxxx----xxxxx-----xxxxxxxxxxx-----------------|
G|----66666p4\---44444--4p\22222222222-----------------|
D|----66666p4\---44444--4p\22222222222-----------------|
A|----4444444\---22222p0---00000h20000-----------------|
D|----xxxxxxx----xxxxx-----xxxxx--xxxx-----------------|

Guitar 2:

e|-----------------------------------------------------|
B|-----------------------------------------------------|
G|----6666666\---44444\--22222/4\22222-----------------|
D|----6666666\---44444\--22222/4\22222-----------------|
A|----4444444\---22222\--00000---00000-----------------|
D|-----------------------------------------------------|

Guitar 1

That I'd like to push it half to death. They want to, they watch you.
e|----xxxxxxx----xxxxx-----xxxxxxxxxxx-----------------|
B|----xxxxxxx----xxxxx-----xxxxxxxxxxx-----------------|
G|----66666p4\---44444--4p\22222222222-----------------|
D|----66666p4\---44444--4p\22222222222-----------------|
A|----4444444\---22222p0---00000h20000-----------------|
D|----xxxxxxx----xxxxx-----xxxxx--xxxx-----------------|


Guitar 2:

e|----xxxxxxx----xxxxx---xxxxx---xxxxx-----------------|
B|----xxxxxxx----xxxxx---xxxxx---xxxxx-----------------|
G|----6x6x6x6\---4x4x4\--22222/4\22222-----------------|
D|----6x6x6x6\---4x4x4\--22222/4\22222-----------------|
A|----4x4x4x4\---2x2x2\--00000---00000-----------------|
D|----xxxxxxx----xxxxx---xxxxx---xxxxx-----------------|


Guitar 1
Silence turning heads and breaking necks. Past time, we'll mean time.
e|----xxxxxxx----xxxxx-----xxxxxxxxxxx-----------------|
B|----xxxxxxx----xxxxx-----xxxxxxxxxxx-----------------|
G|----66666p4\---44444--4p\22222222222-----------------|
D|----66666p4\---44444--4p\22222222222-----------------|
A|----4444444\---22222p0---00000h20000-----------------|
D|----xxxxxxx----xxxxx-----xxxxx--xxxx-----------------|


Guitar 2:

e|-----0----0--0----2----2--2----4----4---4------------|
B|-------0----0--0----2----2--2----5----5---5----------|
G|----2----0------/4----4------/6----6-----------------|
D|-----------------------------------------------------|
A|-----------------------------------------------------|
D|-----------------------------------------------------|

Guitar 1
See their jaws drop as you fly like a butterfly straight into my web.
e|----xxxxxxx----xxxxx-----xxxxxxxxxxx-----------------|
B|----xxxxxxx----xxxxx-----xxxxxxxxxxx-----------------|
G|----66666p4\---44444--4p\22222222222-----------------|
D|----66666p4\---44444--4p\22222222222-----------------|
A|----4444444\---22222p0---00000h20000-----------------|
D|----xxxxxxx----xxxxx-----xxxxx--xxxx-----------------|

Guitar 2:

e|-----0----0--0----2----2--2----4----4---4------------|
B|-------0----0--0----2----2--2----5----5---5----------|
G|----2----0------/4----4------/6----6-----------------|
D|-----------------------------------------------------|
A|-----------------------------------------------------|
D|-----------------------------------------------------|

Cont.

e|-----0----0-----0------|
B|-------0----0----------|
G|----2----0----0--------|
D|-----------------------|
A|-----------------------|
D|-----------------------|

Refrain 1:

Guitar 1

(Straight into my web)
e|----xxxx-x-------------|
B|----xxxx-x-------------|
G|----2222-2-------------|
D|----2222-2-let ring----|
A|----0000-2-------------|
D|----xxxx-x-------------|

Guitar 2

e|----0000-x-------------|
B|----0000-x-------------|
G|----2222-4-------------|
D|----2222-4-let ring----|
A|----0000-2-------------|
D|-----------------------|

Chorus:1

Guitar 1

Maybe I will be the only one who could leave her.
e|----x------------x-------------|
B|----x------------x-------------|
G|----x------------x-------------|
D|----7-let ring---2-let ring----|
A|----7------------2-------------|
D|----7------------2-------------|

Guitar 2

e|----0------------0-------------|
B|----0------------0-------------|
G|----2------------0-------------|
D|----2-let ring---2-let ring----|
A|----0------------2-------------|
D|----x------------2-------------|

Then:

Verse 2:

Guitar 1

Do you feel stuck? It's all in your head. Mindless, I'm fading.
e|----xxxxxxx----xxxxx-----xxxxxxxxxxx-----------------|
B|----xxxxxxx----xxxxx-----xxxxxxxxxxx-----------------|
G|----66666p4\---44444--4p\22222222222-----------------|
D|----66666p4\---44444--4p\22222222222-----------------|
A|----4444444\---22222p0---00000h20000-----------------|
D|----xxxxxxx----xxxxx-----xxxxx--xxxx-----------------|


Guitar 2

e|-------------------------xxxxx---xxxx----------------|
B|-------------------------xxxxx---xxxx----------------|
G|-------------------------2x2x2/4\2x22----------------|
D|-------------------------2x2x2/4\2x22----------------|
A|-------------------------0x0x0---0x00----------------|
D|-------------------------xxxxx---xxxx----------------|

Guitar 1

I miss the other flies, already dead. I caught some, and left one
e|----xxxxxxx----xxxxx-----xxxxxxxxxxx-----------------|
B|----xxxxxxx----xxxxx-----xxxxxxxxxxx-----------------|
G|----66666p4\---44444--4p\22222222222-----------------|
D|----66666p4\---44444--4p\22222222222-----------------|
A|----4444444\---22222p0---00000h20000-----------------|
D|----xxxxxxx----xxxxx-----xxxxx--xxxx-----------------|

Guitar 2:

e|----xxxxxxx----xxxxx---xxxxx---xxxxx-----------------|
B|----xxxxxxx----xxxxx---xxxxx---xxxxx-----------------|
G|----6x6x6x6\---4x4x4\--2x2x2/4\2x2x2-----------------|
D|----6x6x6x6\---4x4x4\--2x2x2/4\2x2x2-----------------|
A|----4x4x4x4\---2x2x2\--0x0x0---0x0x0-----------------|
D|----xxxxxxx----xxxxx---xxxxx---xxxxx-----------------|

Guitar 1

I saw them turning heads, and broke my neck. I learned to, they want to.
e|----xxxxxxx----xxxxx-----xxxxxxxxxxx-----------------|
B|----xxxxxxx----xxxxx-----xxxxxxxxxxx-----------------|
G|----66666p4\---44444--4p\22222222222-----------------|
D|----66666p4\---44444--4p\22222222222-----------------|
A|----4444444\---22222p0---00000h20000-----------------|
D|----xxxxxxx----xxxxx-----xxxxx--xxxx-----------------|

Guitar 2:

e|----xxxxxxx----xxxxx---xxxxx---xxxxx-----------------|
B|----xxxxxxx----xxxxx---xxxxx---xxxxx-----------------|
G|----6x6x6x6\---4x4x4\--2x2x2/4\2x2x2-----------------|
D|----6x6x6x6\---4x4x4\--2x2x2/4\2x2x2-----------------|
A|----4x4x4x4\---2x2x2\--0x0x0---0x0x0-----------------|
D|----xxxxxxx----xxxxx---xxxxx---xxxxx-----------------|

Guitar 1

See me drop my jaw as you fly like a butterfly, 
e|----xxxxxxx----xxxxx-----xxxxxxxxxxx-----------------|
B|----xxxxxxx----xxxxx-----xxxxxxxxxxx-----------------|
G|----66666p4\---44444--4p\22222222222-----------------|
D|----66666p4\---44444--4p\22222222222-----------------|
A|----4444444\---22222p0---00000h20000-----------------|
D|----xxxxxxx----xxxxx-----xxxxx--xxxx-----------------|

Guitar 2:

e|----xxxxxxx----xxxxx---xxxxx---xxxxx-----------------|
B|----xxxxxxx----xxxxx---xxxxx---xxxxx-----------------|
G|----6x6x6x6\---4x4x4\--2x2x2/4\2x2x2-----------------|
D|----6x6x6x6\---4x4x4\--2x2x2/4\2x2x2-----------------|
A|----4x4x4x4\---2x2x2\--0x0x0---0x0x0-----------------|
D|----xxxxxxx----xxxxx---xxxxx---xxxxx-----------------|


Refrain 2:

Guitar 1:
Heavy way

Straight into my web.
e|----xxxx--xxxx--xxxx-------------------------------|
B|----xxxx--xxxx--xxxx-------------------------------|
G|----2222--4444--6666-------------------------------|
D|----2222--4444--6666-------------------------------|
A|----0000--2222--4444-------------------------------|
D|----xxxx--xxxx--xxxx-------------------------------|

Guitar 2
Heavy way

e|----xxxxxxxxxxxxxxxx---------------------------|
B|----xxxxxxxxxxxxxxxx---------------------------|
G|----2224446666666666---------------------------|
D|----2224446666666666---------------------------|
A|----0002224444444444---------------------------|
D|----xxxxxxxxxxxxxxxx---------------------------|

Chorus 2:

Guitar 1
[ Tab from: http://www.guitaretab.com/u/used/111743.html ]
Maybe I will be the only one who could leave her.
Should I lie and just pretend that I couldn't kill her?
e|--xxxxxxxxxxxxxx----xxxxxxxxxxxxxx----xxxxxxxxxxxxxx----xxxxxxxxxxxxxx---|
B|--xxxxxxxxxxxxxx----xxxxxxxxxxxxxx----xxxxxxxxxxxxxx----xxxxxxxxxxxxxx---|
G|--xxxxxxxxxxxxxx----xxxxxxxxxxxxxx----xxxxxxxxxxxxxx----xxxxxxxxxxxxxx---|
D|--77777777777777----22222222222222----77777777777777----22222222222222---|
A|--77777777777777----22222222222222----77777777777777----22222222222222---|
D|--77777777777777----22222222222222----77777777777777----22222222222222---|

Guitar 2

e|--xxxxxxxxxxxxxx----xxxxxxxxxxxxxx----xxxxxxxxxxxxxx----xxxxxxxxxxxxxx---|
B|--xxxxxxxxxxxxxx----xxxxxxxxxxxxxx----xxxxxxxxxxxxxx----xxxxxxxxxxxxxx---|
G|--xxxxxxxxxxxxxx----xxxxxxxxxxxxxx----xxxxxxxxxxxxxx----xxxxxxxxxxxxxx---|
D|--77777777777777----22222222222222----77777777777777----22222222222222---|
A|--77777777777777----22222222222222----77777777777777----22222222222222---|
D|--77777777777777----22222222222222----77777777777777----22222222222222---|

then

guitar 1

Maybe I can just pretend, As she flies into my web.
e|--------4-----2-----0-----0-----4-----2-----0------|
B|------5-----2-----0-----0-----5-----2-----0--------|
G|----6-----4-----2-----0-----6-----4-----2----------|
D|---------------------------------------------------|
A|---------------------------------------------------|
D|---------------------------------------------------|

guitar 2

e|----x-----------x----------x------------0----------|
B|----x-----------x----------x------------0----------|
G|----6-----------6----------6------------2----------|
D|----6-----------6----------6------------2-let ring-|
A|----4-----------4----------4------------0----------|
D|----x-----------x----------x------------0----------|


Interlude:

Guitar 1
[00:15]
e|---0x0x0x0x0x0x0x0-------------|
B|---555555555555555-------------|
G|---666666666666666-------------|
D|-------------------------------|
A|-------------------------------|
D|-------------------------------|

Guitar 2

e|----4--4--2--2--0--0--0--0--4--4--2--2--0--0--0--0--4--4--2--2------|
B|--------------------------------------------------------------------|
G|---6--6--4--4--2--2--2--2--6--6--4--4--2--2--2--2--6--6--4--4-------|
D|--------------------------------------------------------------------|
A|--------------------------------------------------------------------|
D|--------------------------------------------------------------------|

Then

Guitar 1

Whoaaa oh, oh. Whoaaa oh, whoa. 
e|-----4-----4---4-----2-----2---2-----0-----0---0-----|
B|-------5-----5---------2-----2---------0-----0-------|
G|--/6-----6-------6\4-----4-------4\2-----2-------0---|
D|-----------------------------------------------------|
A|-----------------------------------------------------|
D|-----------------------------------------------------|

Cont.
Whoaaa, whoa, whoa oh, oh
e|-----4-----4---4-----2-----2---2-----0---|
B|-------5-----5---------2-----2-------0---|
G|--/6-----6-------6\4-----4-------4\--2---|
D|-------------------------------------2---|
A|-------------------------------------0---|
D|-----------------------------------------|

Guitar 2

e|----4--4--2--2--0--0--0--0--4--4--2--2--0--0--0--0--4--4--2--2-----|
B|-------------------------------------------------------------------|
G|---6--6--4--4--2--2--2--2--6--6--4--4--2--2--2--2--6--6--4--4------|
D|-------------------------------------------------------------------|
A|-------------------------------------------------------------------|
D|-------------------------------------------------------------------|

e|----------------------------0------0---0-------|
B|--------------------------0------0---0---------|
G|------------------------2------2---------------|
D|-----------------------------------------------|
A|-----------------------------------------------|
D|-----------------------------------------------|

Refrain 2

Both guitars 1&2
Straight into my web.   Straight into my web.
e|---xxxxxxxxxxxxxx-----xxxxxxxxxxxxxx-----------------------------|
B|---22222222222222-----22222222222222-----------------------------|
G|---22222222222222-----22222222222222-----------------------------|
D|---00000000000000-----22222222222222-----------------------------|
A|---xxxxxxxxxxxxxx-----xxxxxxxxxxxxxx-----------------------------|
D|---xxxxxxxxxxxxxx-----xxxxxxxxxxxxxx-----------------------------|

Then :

Guitar 1

I stopped to call you my little girl, I meant more, so much more.
e|-----4-----4---4-----2-----2---2-----0-----0---0-----|
B|-------5-----5---------2-----2---------0-----0-------|
G|--/6-----6-------6\4-----4-------4\2-----2-------0---|
D|-----------------------------------------------------|
A|-----------------------------------------------------|
D|-----------------------------------------------------|

See me drop my jaw as you fly like a butterfly.
e|-----4-----4---4-----2-----2---2-----0---|
B|-------5-----5---------2-----2-------0---|
G|--/6-----6-------6\4-----4-------4\--2---|
D|-------------------------------------2---|
A|-------------------------------------0---|
D|-----------------------------------------|

Guitar 2

e|----4--4--2--2--0--0--0--0--4--4--2--2--0--0--0--0--4--4--2--2---|
B|-----------------------------------------------------------------|
G|---6--6--4--4--2--2--2--2--6--6--4--4--2--2--2--2--6--6--4--4----|
D|-----------------------------------------------------------------|
A|-----------------------------------------------------------------|
D|-----------------------------------------------------------------|

Chorus 3:
 Guitar 1:
   |-------------------acoustic part-----------------|	
                                                    Heavy part distortion on
Maybe I will be the only one who could leave her.         |
Should I lie and just pretend that I couldn't kill her?   |________________
e|--xxxxxxxxxxxxxx----xxxxxxxxxxxxxx----xxxxxxxxxxxxxx----xxxxxxxxxxxxxx---|
B|--xxxxxxxxxxxxxx----xxxxxxxxxxxxxx----xxxxxxxxxxxxxx----xxxxxxxxxxxxxx---|
G|--xxxxxxxxxxxxxx----xxxxxxxxxxxxxx----xxxxxxxxxxxxxx----xxxxxxxxxxxxxx---|
D|--77777777777777----22222222222222----77777777777777----22222222222222---|
A|--77777777777777----22222222222222----77777777777777----22222222222222---|
D|--77777777777777----22222222222222----77777777777777----22222222222222---|

Cont.
Maybe I will be the only one who will leave her.
Should I lie and just pretend that I couldn't kill her?
e|--xxxxxxxxxxxxxx----xxxxxxxxxxxxxx----xxxxxxxxxxxxxx----xxxxxxxxxxxxxx---|
B|--xxxxxxxxxxxxxx----xxxxxxxxxxxxxx----xxxxxxxxxxxxxx----xxxxxxxxxxxxxx---|
G|--xxxxxxxxxxxxxx----xxxxxxxxxxxxxx----xxxxxxxxxxxxxx----xxxxxxxxxxxxxx---|
D|--77777777777777----22222222222222----77777777777777----22222222222222---|
A|--77777777777777----22222222222222----77777777777777----22222222222222---|
D|--77777777777777----22222222222222----77777777777777----22222222222222---|

Guitar 2

e|--------------------------------------------------------xxxxxxxxxxxxxx---|
B|--------------------------------------------------------xxxxxxxxxxxxxx---|
G|--------------------------------------------------------xxxxxxxxxxxxxx---|
D|--------------------------------------------------------22222222222222---|
A|--------------------------------------------------------22222222222222---|
D|--------------------------------------------------------22222222222222---|

cont.
e|--xxxxxxxxxxxxxx----xxxxxxxxxxxxxx----xxxxxxxxxxxxxx----xxxxxxxxxxxxxx---|
B|--xxxxxxxxxxxxxx----xxxxxxxxxxxxxx----xxxxxxxxxxxxxx----xxxxxxxxxxxxxx---|
G|--xxxxxxxxxxxxxx----xxxxxxxxxxxxxx----xxxxxxxxxxxxxx----xxxxxxxxxxxxxx---|
D|--77777777777777----22222222222222----77777777777777----22222222222222---|
A|--77777777777777----22222222222222----77777777777777----22222222222222---|
D|--77777777777777----22222222222222----77777777777777----22222222222222---|

Then

Guitar 1

Maybe I can just pretend,      As she flies into my web.
e|--------4-----2-----0-----0-----4-----2-----0-----0--0-------0---|
B|------5-----2-----0-----0-----5-----2-----0-----0----0-----0-----|
G|----6-----4-----2----p0-----6-----4-----2----p0------2-----------|
D|-----------------------------------------------------2-----------|
A|-----------------------------------------------------0-----------|
D|-----------------------------------------------------------------|

Guitar 2

e|---------------------|
B|----6----------------|
G|----6----------------|
D|----4---let ring-----|
A|---------------------|
D|---------------------|


[End…]


"Into My Web"

Whoaaa oh, oh.
Whoaaa oh, whoa.
Whoaaa, whoa, whoa oh, oh

I stopped to call you my little girl.
I meant more. So much more.
That I'd like to push it half to death.
They want to, they watch you.

Silence turning heads and breaking necks.
Past time, we'll mean time.
See their jaws drop as you fly like a butterfly straight into my web.
(Straight into my web)

Maybe I will be the only one who could leave her.

Do you feel stuck? It's all in your head
Mindless, I'm fading.
I miss the other flies, already dead
I caught some, and left one.
I saw them turning heads, and broke my neck
I learned to, they want to.
See me drop my jaw as you fly like a butterfly,
Straight into my web.

Maybe I will be the only one who could leave her.
Should I lie and just pretend that I couldn't kill her?
Maybe I can just pretend,
As she flies into my web.

Whoaaa oh, oh.
Whoaaa oh, whoa.
Whoaaa, whoa, whoa oh, oh

Straight into my web.
Straight into my web.

I stopped to call you my little girl,
I meant more, so much more.
See me drop my jaw as you fly like a butterfly.

Maybe I will be the only one who could leave her.
Should I lie and just pretend that I couldn't kill her?
Maybe I will be the only one who will leave her.
Should I lie and just pretend that I couldn't kill her?
Maybe I can just pretend,
As she flies into my web.




hope you loved it.
thank you.!god bless...
Related for Into My Web tab
×
Into My Web