Song name
# A B C D E F G H I J K L M N O P Q R S T U V W X Y Z

Used - Go Slit Your Own Throat tab



This is the complete Song for two guitars, correct intro riff and all!  Be sure to read 
legends below so you can follow the tab.
Sorry for the huge tab, but that's because it's for two guitars.

Duration Legend
---------------
W - whole
H - half
Q - quarter
E - 8th
S - 16th


Tablature Legend
----------------
L - tied note
x - dead note
h - hammer on
p - pull off
br - bendRelease
S - shift slide
/ -  slide into from below or out of upwards
\ -  slide into from above or out of downwards
~ - vibrato

Intro 1
Intro 2
Verse
Chorus
Verse 2
Chorus
Bridge
Chorus (without first measure)
Out


Intro Part 1

Rhythm

 S. S S. S E.  H           W                   S. S S. S E.  H
E||-------------------------|-------------------|-------------------------|
B||-------------------------|-------------------|-------------------------|
G||-------------------------|-------------------|-------------------------|
D||--8----7----0---L--------|--L----------------|--8----7----0---L--------|
A||--8----7----0---L--------|--L----------------|--8----7----0---L--------|
D||--8----7----0---L--------|--L----------------|--8----7----0---L--------|


  W                   S. S S. S E.  H           W
-------------------|-------------------------|-------------------|
-------------------|-------------------------|-------------------|
-------------------|-------------------------|-------------------|
--L----------------|--8----7----3---L--------|--L----------------|
--L----------------|--8----7----3---L--------|--L----------------|
--L----------------|--8----7----3---L--------|--L----------------|


  S. S S. S E.  H           W                   H.              Q
-------------------------|-------------------|------------------------|
-------------------------|-------------------|------------------------|
-------------------------|-------------------|------------------------|
--8----7----5---L--------|--L----------------|--5s------------(20)----|
--8----7----5---L--------|--L----------------|--5s------------(20)----|
--8----7----5---L--------|--L----------------|--5s------------(20)----|
				              (Slide up for the effect)

Lead
     E.  E   E.  H            Q       Q       Q       Q
E||----------0---L--------|----------------------------------|
B||---------10---L--------|--10br----10br----10br----10br----|
G||-----------------------|----------------------------------|
D||-----------------------|----------------------------------|
A||-----------------------|----------------------------------|
D||-----------------------|----------------------------------|
                            (These are half-step bends)

   Q      S  E.  H            Q       Q       Q       Q
-------------L---L--------|----------------------------------|
--10br------10---L--------|--10br----10br----10br----10br----|
--------------------------|----------------------------------|
--------------------------|----------------------------------|
--------------------------|----------------------------------|
--------------------------|----------------------------------|


   Q      S  E.  H            Q       Q       Q       Q
-------------L---L--------|----------------------------------|
--10br------10---L--------|--10br----10br----10br----10br----|
--------------------------|----------------------------------|
--------------------------|----------------------------------|
--------------------------|----------------------------------|
--------------------------|----------------------------------|


   Q      S  E.  H            Q       Q       Q       Q
-------------L---L--------|----------------------------------|
--10br------10---L--------|--10br----10br----10br----10br----|
--------------------------|----------------------------------|
--------------------------|----------------------------------|
--------------------------|----------------------------------|
--------------------------|----------------------------------|


   Q      H        E  E
---L---------------------||
--10br-------------------||
-------------------------||
-------------------x--x--||
-------------------x--x--||
-------------------x--x--||

Intro Part 2


Rhythm
  E  E  E  E  E  E  E  E     E  E  E  E  E  E  E  E
--------------------------|--------------------------|
--------------------------|--------------------------|
--------------------------|--------------------------|
--0--0--0--0--0--0--0--0--|--0--0--0--0--0--0--0--0--|
--0--0--0--0--0--0--0--0--|--0--0--0--0--0--0--0--0--|
--0--0--0--0--0--0--0--0--|--0--0--0--0--0--0--0--0--|


  E  E  E  E  E  E  E  E     E  E  E  E  E  E  E  E
--------------------------|--------------------------|
--------------------------|--------------------------|
--------------------------|--------------------------|
--3--3--3--3--3--3--3--3--|--3--3--3--3--3--x--3--x--|
--3--3--3--3--3--3--3--3--|--3--3--3--3--3--x--3--x--|
--3--3--3--3--3--3--3--3--|--3--3--3--3--3--x--3--x--|


  E  E  E  E  E  E  E  E     E  E  E  E  E  E  E  E
--------------------------|--------------------------|
--------------------------|--------------------------|
--------------------------|--------------------------|
--5--5--5--5--5--5--5--5--|--5--5--5--5--5--5--5--5--|
--5--5--5--5--5--5--5--5--|--5--5--5--5--5--5--5--5--|
--5--5--5--5--5--5--5--5--|--5--5--5--5--5--5--5--5--|


  E  E  E  E  E  E  E  E     E  E  E  E  E  E  E  E
--------------------------|---------------------------||
--------------------------|---------------------------||
--------------------------|---------------------------||
--8--8--8--8--8--8--8--8--|--7--7--7--7--7--7--7--7s--||
--8--8--8--8--8--8--8--8--|--7--7--7--7--7--7--7--7s--||
--8--8--8--8--8--8--8--8--|--7--7--7--7--7--7--7--7s--||

Lead
     E  E  E  E  E  E   E  E     E  E  E  E  E  E  E  E
E||-----------6---------------|--------------------------|
B||------------------------6--|-----8--6-----------------|
G||--5--7--5-----5--7p--5-----|--5-----------5--x--7--x--|x3
D||---------------------------|--------------------------|
A||---------------------------|--------------------------|
D||---------------------------|--------------------------|


  E  E  E  E  E  E  E  E     E  E  E  E  E  E  Q
--------------------------|--------------------------||
-----------6--------6--8--|--6-----------------------||
--5--7--5-----5--7--------|-----7--5--x--5--x--7\----||
--------------------------|--------------------------||
--------------------------|--------------------------||
--------------------------|--------------------------||

Verse


Rhythm
     PM PM PM PM PM PM PM PM    PM PM PM PM PM PM PM PM
     E  E  E  E  E  E  E  E     E  E  E  E  E  E  E  E
E||--------------------------|--------------------------|
B||--------------------------|--------------------------|
G||--------------------------|--------------------------|
D||--0-----------------------|--------------------------|
A||--0--0--0--0--0--0--0--0--|--0--0--0--0--0--0--0--0--|
D||--0--0--0--0--0--0--0--0--|--0--0--0--0--0--0--0--0--|


       PM PM PM PM PM PM    PM PM PM PM PM PM    PM
  Q    E  E  E  E  E  E     E  E  E  E  E  E  E  E
-------------------------|--------------------------|
-------------------------|--------------------------|
-------------------------|--------------------------|
--3----------------------|--------------------3-----|
--3----3--3--3--3--3--3--|--3--3--3--3--3--3--3--3--|
--3----3--3--3--3--3--3--|--3--3--3--3--3--3--3--3--|


       PM PM PM PM PM PM    PM PM PM PM
  Q    E  E  E  E  E  E     E  E  E  E  E  E  E  E
-------------------------|--------------------------|
-------------------------|--------------------------|
-------------------------|--------------------------|
--8----------------------|--------------8--8--8--8--|
--8----8--8--8--8--8--8--|--8--8--8--8--8--8--8--8--|
--8----8--8--8--8--8--8--|--8--8--8--8--8--8--8--8--|


  E  E  E  E  E  E  E  E      E   E   E   E   E   E  Q
--------------------------|-------------------------------||
--------------------------|-------------------------------||
--9--9--9--9--9--9--------|--12--12--12--12--12--12-------||
--7--7--7--7--7--7--x-----|--10--10--10--10--10--10-------||x2
--7--7--7--7--7--7--x-----|--10--10--10--10--10--10-------||
--7--7--7--7--7--7--x-----|--10--10--10--10--10--10-------||

Lead
     Q    H.                              Q    H.
E||--------------------|---------------|--------------------|
B||--------------------|---------------|--------------------|
G||--------------------|---------------|--------------------|
D||--0-----------------|---------------|--3-----------------|
A||--0-----------------|---------------|--3-----------------|
D||--0-----------------|---------------|--3-----------------|


                                             PM PM PM PM
  H.           E  E     Q    H.              E  E  E  E  E  E   E   E
---------------------|--------------------|----------------------------|
---------------------|--------------------|------------------------11--|
---------------------|--------------------|--------------------10--10--|
---------------3--x--|--8-----------------|-----------------8---8---8--|
---------------3--x--|--8-----------------|--------------8--8---8---8--|
---------------3--x--|--8-----------------|--8--8--8--8--8--8---8---8--|


  E  E  E  E  E  E  E  E      E   E   E   E   E   E   E  E
--------------------------|---------------------------------||
--------------------------|---------------------------------||
--9--9--9--9--9--9--------|--12--12--12--12--12--12---------||
--7--7--7--7--7--7--x-----|--10--10--10--10--10--10---x--x--||x2
--7--7--7--7--7--7--x-----|--10--10--10--10--10--10---x--x--||
--7--7--7--7--7--7--x-----|--10--10--10--10--10--10---x--x--||

Chorus


Rhythm & Lead
     Q    Q    E  E  E  E     E  E  Q    E  E  E  E
E||------------------------|-------------------------|
B||------------------------|-------------------------|
G||------------------------|-------------------------|
D||--8----8----8--8--8--8--|--8--8--8----8--8--8--8--|
A||--8----8----8--8--8--8--|--8--8--8----8--8--8--8--|
D||--8----8----8--8--8--8--|--8--8--8----8--8--8--8--|


  E  E  E  Q    E  Q       E  E  E  Q    E  Q       E  E  E  Q    Q    E
------------------------|------------------------|------------------------|
------------------------|------------------------|------------------------|
------------------------|------------------------|------------------------|
--0--0--0--0----0--0----|--0--0--0--0----0--0----|--5--5--5--5----5----5--|
--0--0--0--0----0--0----|--0--0--0--0----0--0----|--5--5--5--5----5----5--|
--0--0--0--0----0--0----|--0--0--0--0----0--0----|--5--5--5--5----5----5--|


  E  E  E  E  E  E  E  E      E    E    E    E    E    E   E   E
--------------------------|----------------------------------------|
--------------------------|--(3)--(3)--(3)--(3)--(3)--(3)-----(3)--|
--------------------------|--(2)--(2)--(2)--(2)--(2)--(2)-----(2)--|
--8--8--8--8--8--x--8--8--|---0----0----0----0----0----0---x---0---|
--8--8--8--8--8--x--8--8--|---0----0----0----0----0----0---x---0---|
--8--8--8--8--8--x--8--8--|---0----0----0----0----0----0---x---0---|
                            (The (notes) are only for the lead)

  E   E   E   E   E   E    E    E
------------------------------------||
-----(3)-----(3)-----(3)--(3)--(3)--||
-----(2)-----(2)-----(2)--(2)--(2)--||
--x---0---x---0---x---0----0----0---||x2
--x---0---x---0---x---0----0----0---||
--x---0---x---0---x---0----0----0---||

Verse 2


Rhythm
      W                    W                     W
E||---------------------|-------------------|----------------------|
B||---------------------|-------------------|----------------------|
G||--(7)----------------|--L----------------|--(10)----------------|
D||--(x)----------------|-------------------|---(x)----------------|
A||--(5)----------------|--L----------------|---(8)----------------|
D||---------------------|-------------------|----------------------|


  W                   W                   W
-------------------|-------------------|-------------------|
-------------------|-------------------|-------------------|
--L----------------|--L----------------|--L----------------|
-------------------|-------------------|-------------------|
--L----------------|--L----------------|--L----------------|
-------------------|-------------------|-------------------|


  E  E  E  E  E  E  E  E      E   E   E   E   E   E   E  E
--------------------------|---------------------------------||
--------------------------|---------------------------------||
--9--9--9--9--9--9--------|--12--12--12--12--12--12---------||
--7--7--7--7--7--7--x-----|--10--10--10--10--10--10---x--x--||
--7--7--7--7--7--7--x-----|--10--10--10--10--10--10---x--x--||
--7--7--7--7--7--7--x-----|--10--10--10--10--10--10---x--x--||

(Second half is just like the normal verse)

Lead
        <
        W                    W                     W
E||--/(18)----------------|--L----------------|--(18)----------------|
B||-----------------------|-------------------|----------------------|
G||-----------------------|-------------------|----------------------|
D||-----------------------|-------------------|----------------------|
A||-----------------------|-------------------|----------------------|
D||-----------------------|-------------------|----------------------|


                                            <
  W                   W                     H         H
--L----------------|--L----------------|--(18)--------L/--------|
-------------------|-------------------|------------------------|
-------------------|-------------------|------------------------|
-------------------|-------------------|------------------------|
-------------------|-------------------|------------------------|
-------------------|-------------------|------------------------|


  E  E  E  E  E  E  E  E      E   E   E   E   E   E   E  E
--------------------------|---------------------------------||
--------------------------|---------------------------------||
--9--9--9--9--9--9--------|--12--12--12--12--12--12---------||
--7--7--7--7--7--7--x-----|--10--10--10--10--10--10---x--x--||
--7--7--7--7--7--7--x-----|--10--10--10--10--10--10---x--x--||
--7--7--7--7--7--7--x-----|--10--10--10--10--10--10---x--x--||

(Second half is just like the normal verse)


Bridge


Rhythm
     PM PM PM PM PM PM
     E  E  E  E  E  E     E  E  E  E  E  E     E  E  E  E  E  E
E||--------------------  |--------------------|--------------------|
B||--------------------  |--------------------|--------------------|
G||--------------------x6|--------------------|--------------------|
D||--------------------  |--------------------|--------------------|
A||--------------------  |--------------------|--------------------|
D||--0--8--7--0--8--7--  |--0--8--7--0--8--7--|--0--8--7--0--8--7--|


  W                   W                   W
-------------------|-------------------|-------------------|
-------------------|-------------------|-------------------|
-------------------|-------------------|-------------------|
-------------------|-------------------|-------------------|
-------------------|-------------------|-------------------|
--0----------------|--L----------------|--3----------------|


  W                   W                   W
-------------------|-------------------|-------------------|
-------------------|-------------------|-------------------|
-------------------|-------------------|-------------------|
-------------------|-------------------|-------------------|
-------------------|-------------------|-------------------|
--L----------------|--5----------------|--L----------------|

  W                   W
-------------------|-------------------|
-------------------|-------------------|
-------------------|-------------------|
-------------------|-------------------|
--8----------------|--L----------------|
--8----------------|--L----------------|

Lead
                 E  E  E  E  E  E     W
E||-----  |-----|--------------------|--------------------|
B||-----  |-----|--------------------|--------------------|
G||-----x6|-----|--------------------|--------------------|
D||-----  |-----|--------------------|--------------------|
A||-----  |-----|--------------------|--------------------|
D||-----  |-----|--0--8--7--0--8--7--|--0~----------------|


  W                   W                    W
-------------------|--------------------|-------------------|
-------------------|--------------------|-------------------|
-------------------|--------------------|-------------------|
-------------------|--------------------|-------------------|
-------------------|--------------------|-------------------|
--L----------------|--3~----------------|--L----------------|


  W                    W                   E  E  E  E  E  E  E  E
--------------------|-------------------|--------------------------|
--------------------|-------------------|--------------------------|
--------------------|-------------------|--------------------------|
--------------------|-------------------|--------------------------|
--------------------|-------------------|--8--8--8--8--x--8--x-----|
--5~----------------|--L----------------|--8--8--8--8--x--8--x-----|


  E  E  E   E  E  Q    E     W                    W
--------------------------|--------------------|-------------------|
--------------------------|--------------------|-------------------|
--------------------------|--------------------|-------------------|
--------------------------|--------------------|-------------------|
--7--7--7--10--x--8----x--|--------------------|-------------------|
--7--7--7--10--x--8----x--|--0~----------------|--L----------------|


  W                    W                   W
--------------------|-------------------|--------------------|
--------------------|-------------------|--------------------|
--------------------|-------------------|--------------------|
--------------------|-------------------|--------------------|
--------------------|-------------------|--------------------|
--3~----------------|--L----------------|--5~----------------|


  W                   E  E  E  E  E  E  E  E     E  E  E   E  E  Q    E
-------------------|--------------------------|--------------------------|
-------------------|--------------------------|--------------------------|
-------------------|--------------------------|--------------------------|
-------------------|--------------------------|--------------------------|
-------------------|--8--8--8--8--x--8--x-----|--7--7--7--10--x--8----x--|
--L----------------|--8--8--8--8--x--8--x-----|--7--7--7--10--x--8----x--|


  H.           Q
---------------------||
---------------------||
---------------------||
--8------------8\----||
--8------------8\----||
--8------------8\----||


Out

Rhythm
     E  E  E  E  E  E  E  E     E  E  E  E  E  E  E  E
E||--------------------------|--------------------------|
B||--------------------------|--------------------------|
G||--------------------------|--------------------------|
D||--0--0--0--0--0--0--x--1--|--x--0--x--0--x--0--0--0--|
A||--0--0--0--0--0--0--x--1--|--x--0--x--0--x--0--0--0--|
D||--0--0--0--0--0--0--x--1--|--x--0--x--0--x--0--0--0--|


  E  E  E  E  E  E  E  E     E  E  E  E  E  E  E  E
--------------------------|--------------------------|
--------------------------|--------------------------|
--------------------------|--------------------------|
--0--0--0--0--0--0--x--1--|--x--0--x--0--x--0--0--0--|
--0--0--0--0--0--0--x--1--|--x--0--x--0--x--0--0--0--|
--0--0--0--0--0--0--x--1--|--x--0--x--0--x--0--0--0--|


  E  E  E  E  E  E  E  E     E  E  E  E  E  E  E  E     W
--------------------------|--------------------------|-------------------||
--------------------------|--------------------------|-------------------||
--------------------------|--------------------------|-------------------||
--0--0--0--0--0--0--x--1--|--x--0--x--0--x--0--8--7--|--0----------------||
--0--0--0--0--0--0--x--1--|--x--0--x--0--x--0--8--7--|--0----------------||
--0--0--0--0--0--0--x--1--|--x--0--x--0--x--0--8--7--|--0----------------||

Lead
     E  E  E  E  E  E  E  E     E  E  E  E  E  E  E  E
E||--------------------------|--------------------------|
B||--------------------------|--------------------------|
G||-----------------------8--|--8--8-----7--7--7--7--7--|
D||--0--0--0--0--0--0--x--x--|--x--x--x--x--x--x--x--x--|
A||--0--0--0--0--0--0--x--6--|--6--6--x--5--5--5--5--5--|
D||--0--0--0--0--0--0--x-----|--------x-----------------|


  E  E  E  E  E  E  E  E     E  E  E  E  E  E  E  E
--------------------------|--------------------------|
--------------------------|--------------------------|
-----------------------8--|--8--8-----7--7--7--7--7--|
--0--0--0--0--0--0--x--x--|--x--x--x--x--x--x--x--x--|
--0--0--0--0--0--0--x--6--|--6--6--x--5--5--5--5--5--|
--0--0--0--0--0--0--x-----|--------x-----------------|


  E  E  E  E  E  E  E  E     E  E  E  E  E  E  E  E     W
--------------------------|--------------------------|-------------------||
--------------------------|--------------------------|-------------------||
-----------------------8--|--8--8--8--7--7--7--7--7--|--7----------------||
--0--0--0--0--0--0--x--x--|--x--x--x--x--x--x--x--x--|--x----------------||
--0--0--0--0--0--0--x--6--|--6--6--6--5--5--5--5--5--|--5----------------||
--0--0--0--0--0--0--x-----|--------------------------|-------------------||
Tap to rate this tab
# A B C D E F G H I J K L M N O P Q R S T U V W X Y Z