Song name
# A B C D E F G H I J K L M N O P Q R S T U V W X Y Z

Used - Take It Away tab

Alright this is my first tab so don't be to hard on it, but rate it honestly.

Intro:
GUITAR 1 (Repeat 4 times)
e|-----------------------------------------------------------------|
B|-----------------------------------------------------------------|
G|----------12-12-12-12-12-12-12-12-12-12-12-12--------------------|
D|----------x--x--x--x--x--x--x--x--x--x--x--x---------------------|
A|----------10-10-10-10-10-10-10-10-10-10-10-10--------------------|
D|-----------------------------------------------------------------|

GUITAR 2                                                "GET DOWN!"    
e|-----------------------------------------------------------------|
B|-----------------------------------------------------------------|
G|-----------------------------------------------------------------|
D|-----------2\\---------22\\-----9999-2\\--------22\\-------------|
A|-----------2\\---------22\\-----7777-2\\--------22\\-------------|
D|-----------2\\---------22\\----------2\\--------22\\-------------|
                         .        ....   

Chorus (Play four times)
e|-----------------------------------------------------------------|
B|-----------------------------------------------------------------|
G|-----------------------------------------------------------------|
D|-222--5--5-5-5----777----10--10-10-10----------------------------|
A|-222--5--5-5-5----777----10--10-10-10----------------------------|
D|-222--5--5-5-5----777----10--10-10-10----------------------------|

Verse 1:
"I'm lying to myself..."
e|-----------------------------------------------------------------|
B|-----------------------------------------------------------------|
G|-----12-----9-----14------12---12-12-12-12--12-------------------|
D|-----x------x-----x-------x----x--x--x--x---x--------------------|
A|-----10-----7-----12------10---10-10-10-10--10-------------------|
D|-----------------------------------------------------------------|

"I must forgive myself..."
e|-4--6--4--6--4--2--4-----4--6--4--9--7--6------------------|
B|----------------------4------------------------------------|
G|-----------------------------------------------------------|
D|-----------------------------------------------------------|
A|-----------------------------------------------------------|
D|-----------------------------------------------------------|

Pre-chorus:
"Don't! Make! It! Look! so, Pretty burning!"
e|-----------------------------------------------------------------|
B|-----------------------------------------------------------------|
G|----14-14-14-14-14-14-14-14-16-16-16-14-14-14-14-14 14-----------|
D|----x--x--x--x--x--x--x--x--x--x--x--x--x--x--x--x--x------------|
A|----12-12-12 12-12-12-12-12-14-14-14-12-12-12-12-12-12-----------|
D------------------------------------------------------------------|

Chorus (Play four times)
e|-----------------------------------------------------------------|
B|-----------------------------------------------------------------|
G|-----------------------------------------------------------------|
D|-222--5--5-5-5----777----10--10-10-10----------------------------|
A|-222--5--5-5-5----777----10--10-10-10----------------------------|
D|-222--5--5-5-5----777----10--10-10-10----------------------------|

Verse 2:
                    
e|-----------------------------------------------------------------|
B|-----------------------------------------------------------------|
G|-12-12-12-12-12-12-12-12-12-12-----------------------------------|
D|-x--x--x--x--x--x--x--x--x--x------------------------------------|
A|-10-10-10-10-10-10-10-10-10-10-----------------------------------|
D|-----------------------------------------------------------------|


e|-----------------------------------------------------------------|
B|-----------------------------------------------------------------|
G|-11-12-9-11-12-11-12-----16 14 12----12--14-16-12----------------|
D|---------------------10-----------12-----------------------------|
A|-----------------------------------------------------------------|
D|-----------------------------------------------------------------|
  
"I guess I'm bitching..."                                             .
e|-4--6--4--6--4--2--4-----4--6--4--9--7--6------------------|
B|----------------------4------------------------------------|
G|-----------------------------------------------------------|
D|-----------------------------------------------------------|
A|-----------------------------------------------------------|
D|-----------------------------------------------------------|

Pre-chorus:
"Don't! Make! It! Look! so, Pretty burning!"
e|-----------------------------------------------------------------|
B|-----------------------------------------------------------------|
G|----14-14-14-14-14-14-14-14-16-16-16-14-14-14-14-14 14-----------|
D|----x--x--x--x--x--x--x--x--x--x--x--x--x--x--x--x--x------------|
A|----12-12-12 12-12-12-12-12-14-14-14-12-12-12-12-12-12-----------|
D------------------------------------------------------------------|

Chorus (Play eight times)
e|------------------------------------------------------------------|
B|------------------------------------------------------------------|
G|------------------------------------------------------------------|
D|-222--5--5-5-5----777----10--10-10-10--[-xxxxxx------------------]|
A|-222--5--5-5-5----777----10--10-10-10--[-xxxxxx--On-2nd &6th time]|
D|-222--5--5-5-5----777----10--10-10-10--[-xxxxxx--after the 1st 10]|

Interlude: 

Guitar 1 (play twice)
e|-----------------------------------------------------------------|
B|-----------------------------------------------------------------|
G|-99-99-99-99-9-9----99-99-99-99-9999-----------------------------|
D|-xx-xx-xx-xx-x-x----xx-xx-xx-xx-xxxx-----------------------------|
A|-77-77-77-77-7-7----77-77-77-77-7777-----------------------------|
D------------------------------------------------------------------|


Guitar2 (play twice)
e|-----------------------------------------------------------------|
B|-----------------------------------------------------------------|
G|-----------------------------------------------------------------|
D|-22-22-22-22-2-2----22-22-22-22-2222-----------------------------|
A|-22-22-22-22-2-2----22-22-22-22-2222-----------------------------|
D|-22-22-22-22-2-2----22-22-22-22-2222-----------------------------|

"Take My Hand..."
Guitar 1 (play eight times)
e|----------------------------------|
B|----------------------------------|
G|-99-99-99-99-9-9------------------|
D|-xx-xx-xx-xx-x-x------------------|
A|-77-77-77-77-7-7------------------|
D-----------------------------------|


Guitar 2

e|-----------------------------------------------------------------|
B|-----------------------------------------------------------------|
G|-----------------------------------------------------------------|
D|-22-22-22-22-2-2---55-55-55-55-5-5----77-77-77-77-7-7------------|
A|-22-22-22-22-2-2---55-55-55-55-5-5----77-77-77-77-7-7------------|
D|-22-22-22-22-2-2---55-55-55-55-5-5----77-77-77-77-7-7------------|

e|-----------------------------------------------------------------|
B|-----------------------------------------------------------------|
G|-----------------------------------------------------------------|
D|-1010 1010 1010 1010 10 10---------------------------------------|
A|-1010 1010 1010 1010 10 10---------------------------------------|
D|-1010 1010 1010 1010 10 10---------------------------------------|


Break.


Chorus (Play three times)
e|------------------------------------------------------------------|
B|------------------------------------------------------------------|
G|------------------------------------------------------------------|
D|-222--5--5-5-5----777----10--10-10-10--[-xxxxxx------------------]|
A|-222--5--5-5-5----777----10--10-10-10--[-xxxxxx--On-2nd----------]|
D|-222--5--5-5-5----777----10--10-10-10--[-xxxxxx--after the 1st 10]|

Forth time.
e|------------------------------------------------------------------|
B|------------------------------------------------------------------|
G|------------------------------------------------------------------|
D|-141414--12-121212--111111--10--xxxxxx----------------------------|
A|-141414  12 121212  111111--10--xxxxxx----------------------------|
D|-141414--12 121212--111111--10--xxxxxx----------------------------|

Chorus (Play four times)
e|-----------------------------------------------------------------|
B|-----------------------------------------------------------------|
G|-----------------------------------------------------------------|
D|-222--5--5-5-5----777----10--10-10-10----------------------------|
A|-222--5--5-5-5----777----10--10-10-10----------------------------|
D|-222--5--5-5-5----777----10--10-10-10----------------------------|

Outro.
GUITAR 1 (Repeat 4 times)
e|-----------------------------------------------------------------|
B|-----------------------------------------------------------------|
G|----------12-12-12-12-12-12-12-12-12-12-12-12--------------------|
D|----------x--x--x--x--x--x--x--x--x--x--x--x---------------------|
A|----------10-10-10-10-10-10-10-10-10-10-10-10--------------------|
D|-----------------------------------------------------------------|

GUITAR 2                                                
e|-----------------------------------------------------------------|
B|-----------------------------------------------------------------|
G|-----------------------------------------------------------------|
D|-----------2\\---------22\\----22--5--2--5--222--5--2--5--222----|
A|-----------2\\---------22\\----22--5--2--5--222--5--2--5--222----|
D|-----------2\\---------22\\----22--5--2--5--222--5--2--5--222----|
(All slides)
Tap to rate this tab
# A B C D E F G H I J K L M N O P Q R S T U V W X Y Z