Song name
# A B C D E F G H I J K L M N O P Q R S T U V W X Y Z

Used - Ripper tab

-----------------------------------------------------------------------------
			     The Ripper - The Used
-----------------------------------------------------------------------------
Tabbed by: Sanjeev Mishra
Email: sanjeev.mishra94@gmail.com

Tuning: Drop D

Intro pt. 1
e|--------------------------------------------------------------------------|
B|-----6---8-----------6---8------------------------------------------------|
G|-7-------------7----------------------------------------------------------|
D|---0---0---0-0---0-0---0---0----------------------------------------------|
A|--------------------------------------------------------------------------|
D|--------------------------------------------------------------------------|
-----.---.---.-.---.-.---.---.-----------------------------------------------

Intro pt. 2
e|--------------------------------------------------------------------------|
B|--------------------------------------------------------------------------|
G|-------------------------------------------3-3-3-3-3-3-3-3-3-3-3-3-3-3-3-3|
D|-0-3-5--0-3-5--0-3-5--0-3-5-3--0-3-5-0-3-5-3-3-3-3-3-3-3-3-3-3-3-3-3-3-3-3|
A|-0-3-5--0-3-5--0-3-5--0-3-5-3--0-3-5-0-3-5-1-1-1-1-1-1-1-1-1-1-1-1-1-1-1-1|
D|-0-3-5--0-3-5--0-3-5--0-3-5-3--0-3-5-0-3-5--------------------------------|

Verse
e|--------------------------------------------------------------------------|
B|-----6---8-----------6---8------)-----------------------------------------|
G|-7-------------7----------------)-x3--3-3-3-3-3-3-3-3-3-3-3-3-3-3-3-3-----|
D|---0---0---0-0---0-0---0---0-0-0)-----3-3-3-3-3-3-3-3-3-3-3-3-3-3-3-3-----|
A|--------------------------------------1-1-1-1-1-1-1-1-1-1-1-1-1-1-1-1-----|
D|--------------------------------------------------------------------------|
-----.---.---.-.---.-.---.---.-.-.-------------------------------------------

Chorus
e|--------------------------------------------------------------------------|
B|--------------------------------------------------------------------------|
G|-4-5-7-)-----4-5-3--------------------------------------------------------|
D|-4-5-7-)-x3--4-5-3--------------------------------------------------------|
A|-2-3-5-)-----2-3-1--------------------------------------------------------|
D|--------------------------------------------------------------------------|

Post-Chorus
e|--------------------------------------------------------------------------|
B|--------------------------------------------------------------------------|
G|-------------------------------------------3-3-3-3-3-3-3-3-3-3-3-3-3-3-3-3|
D|-0-3-5--0-3-5--0-3-5--0-3-5-3--0-3-5-0-3-5-3-3-3-3-3-3-3-3-3-3-3-3-3-3-3-3|
A|-0-3-5--0-3-5--0-3-5--0-3-5-3--0-3-5-0-3-5-1-1-1-1-1-1-1-1-1-1-1-1-1-1-1-1|
D|-0-3-5--0-3-5--0-3-5--0-3-5-3--0-3-5-0-3-5--------------------------------|

Verse 2
e|--------------------------------------------------------------------------|
B|-----6---8-----------6---8------)-----------------------------------------|
G|-7-------------7----------------)-x3--3-3-3-3-3-3-3-3-3-3-3-3-3-3-3-3-----|
D|---0---0---0-0---0-0---0---0-0-0)-----3-3-3-3-3-3-3-3-3-3-3-3-3-3-3-3-----|
A|--------------------------------------1-1-1-1-1-1-1-1-1-1-1-1-1-1-1-1-----|
D|--------------------------------------------------------------------------|
-----.---.---.-.---.-.---.---.-.-.-------------------------------------------

Chorus
e|--------------------------------------------------------------------------|
B|--------------------------------------------------------------------------|
G|-4-5-7-)----4-5-3---------------------------------------------------------|
D|-4-5-7-)-x3-4-5-3---------------------------------------------------------|
A|-2-3-5-)----2-3-1---------------------------------------------------------|
D|--------------------------------------------------------------------------|

Post-Chorus
e|--------------------------------------------------------------------------|
B|--------------------------------------------------------------------------|
G|--------------------------------------------------------------------------|
D|-0-3-5--0-3-5-------------------------------------------------------------|
A|-0-3-5--0-3-5-------------------------------------------------------------|
D|-0-3-5--0-3-5-------------------------------------------------------------|

Interlude pt. 1
e|--------------------------------------------------------------------------|
B|--------------------------------------------------------------------------|
G|--------------------------------------------------------------------------|
D|--0000-00-00--------------------------------------------------------------|
A|--0000-00-00--------------------------------------------------------------|
D|--0000-00-00--------------------------------------------------------------|
----....-..-..---------------------------------------------------------------

Interlude pt. 2
e|--------------------------------------------------------------------------|
B|--------------------------------------------------------------------------|
G|-8-----8------------------------------------------------------------------|
D|---0-0---0-0--------------------------------------------------------------|
A|-6-0-0-6-0-0--------------------------------------------------------------|
D|---0-0---0-0--------------------------------------------------------------|

Thing after Interlude ("Time Kills, Makes No Difference...") These are 12s:
e|--------------------------------------------------------------------------|
B|--------------------------------------------------------------------------|
G|--------------------------------------------------------------------------|
D|-12-12-12-12-12-12-12-12-12-12-12-12-12-12-12)----------------------------|
A|-12-12-12-12-12-12-12-12-12-12-12-12-12-12-12)----------------------------|
D|-12-12-12-12-12-12-12-12-12-12-12-12-12-12-12)-x3-------------------------|
---xx-xx-xx-xx-xx-xx-xx-xx-xx-xx-xx-xx-xx-xx-xx------------------------------

Nothing plays at the harmonized vocal part.

Chorus
e|--------------------------------------------------------------------------|
B|--------------------------------------------------------------------------|
G|-4-5-7-)----4-5-3---------------------------------------------------------|
D|-4-5-7-)-x2-4-5-3---------------------------------------------------------|
A|-2-3-5-)----2-3-1---------------------------------------------------------|
D|--------------------------------------------------------------------------|

Post-Chorus
e|--------------------------------------------------------------------------|
B|--------------------------------------------------------------------------|
G|--------------------------------------------------------------------------|
D|-0-3-5--0-3-5--0-3-5--0-3-5-3--0-3-5--0-3-5--0-3-5--0-3-5-3--0-3-5--0-3-5-|
A|-0-3-5--0-3-5--0-3-5--0-3-5-3--0-3-5--0-3-5--0-3-5--0-3-5-3--0-3-5--0-3-5-|
D|-0-3-5--0-3-5--0-3-5--0-3-5-3--0-3-5--0-3-5--0-3-5--0-3-5-3--0-3-5--0-3-5-|

Cool Ending, insert here



| /  slide up
| \  slide down
| h  hammer-on
| p  pull-off
| ~  vibrato
| +  harmonic
| x  Mute note
============================================================================
Tap to rate this tab
 
# A B C D E F G H I J K L M N O P Q R S T U V W X Y Z