Song name
# A B C D E F G H I J K L M N O P Q R S T U V W X Y Z

Used - Wake The Dead tab

hey people! this is my version of Wake The Dead..it should be like 99% correct..i hope 
just figure out the timing for switching in the chorus..it should be easy!! hope you guys 
it

Tuning: Drop D (DADGBe)

Intro/Riff
e|---------------------------------------------------------------------|
B|---------------------------------------------------------------------|
G|---------------------------------------------------------------------|
D|---------------------------------------------------------------------|
A|---------------------------------------------------------------------|
D|-----0h9-12-12-11-11-12-14---0h9-12-12-11-11-4-4---------------------|

e|-----------------------------------------------------------------------|
B|-----------------------------------------------------------------------|
G|-----------------------------------------------------------------------|
D|----------------------------------------------4-4----------------------|
A|----------------------------------------------4-4----------------------|
D|-----0h9-12-12-11-11-12-14---0h9-12-12-11-11--4-4----------------------|

e|---------------------------------------------------------------------|
B|---------------------------------------------------------------------|
G|---------------------------------------------------------------------|
D|---------------------------------------------------------------------|
A|---------------------------------------------------------------------|
D|-----0h9-12-12-11-11-12-14---0h9-12-12-11-11-4-4---------------------|

e|---------------------------------------------------------------------|
B|---------------------------------------------------------------------|
G|---------------------------------------------------------------------|
D|---------------------------------------------------------------------|
A|---------------------------------------------------------------------|
D|-----0h9-12-12-11-11-12-14---0h9-12-12-11-11-4-4---------------------|

Verse
e|---------------------------------------------------------------------------|
B|---------------------------------------------------------------------------|
G|---------------------------------------------------------------------------|
D|---------------------------------------------------------------------------|
A|---------------------------------------------------------------------------|
D|---0h9-12-12-11-11-12-14---0h9-12-12-11-11-4-4---0h9-12-12-11-11-14--------|
     .   .  .  .  .  .  .  .  .   .  .  . . .     .  .  .  .  .  .

e|--------------------------------------------------------------------------|
B|--------------------------------------------------------------------------|
G|--------------------------------------------------------------------------|
D|-------------------4-4----------------------------------------------------|
A|-------------------4-4----------------------------------------------------|
D|--0h9-12-12-11-11--4-4-----0h9-12-12-11-11-12-14----0h9-12-12-11-11-4-4---|
    .   .  .  .  .            .  .  .  .  .  .  .     . . .  .  .  .  .
e|---------------------------------------------------------------------------|
B|---------------------------------------------------------------------------|
G|---------------------------------------------------------------------------|
D|--------------------------------------------------4-4---5-55-5-4---55-5-XX-|
A|--------------------------------------------------4-4---5-55-5-4---55-5-XX-|
D|-----0h9-12-12-11-11-12-14-------0h9-12-12-11-11--4-4---5-55-5-4---55-5-XX-|

Chorus
e|---------------------------------------------------------------------------|
B|---------------------------------------------------------------------------|
G|---------------------------------------------------------------------------|
D|--9999999999-121212121212-5555555555555555555----10101010101010------------|
A|--9999999999-121212121212-5555555555555555555----10101010101010------------|
D|--9999999999-121212121212-5555555555555555555----10101010101010------------|

e|---------------------------------------------------------------------------|
B|---------------------------------------------------------------------------|
G|---------------------------------------------------------------------------|
D|--9999999999-121212121212---5-5-5---5-5-5---10101010101010-----------------|
A|--9999999999-121212121212---5-5-5---5-5-5---10101010101010-----------------|
D|--9999999999-121212121212---5-5-5---5-5-5---10101010101010-----------------|

Riff 2x

Verse 2
Bass only
e|---------------------------------------------------------------------------|
B|---------------------------------------------------------------------------|
G|---------------------------------------------------------------------------|
D|---------------------------------------------------------------------------|
A|---------------------------------------------------------------------------|
D|---------------------------------------------------------------------------|
Then Guitar comes in
e|---------------------------------------------------------------------------|
B|---------------------------------------------------------------------------|
G|---------------------------------------------------------------------------|
D|-9-9-----------------------------------------------------------------------|
A|-9-9-----------------------------------------------------------------------|
D|-9-9-0h9-12-12-11-11-12-14---0h9-12-12-11-11-4-4---0h9-12-12-11-11-14------|
       PM...........................................................
e|---------------------------------------------------------------------------|
B|---------------------------------------------------------------------------|
G|---------------------------------------------------------------------------|
D|-------------------------------5-5-5---5-5-5--XX---------------------------|
A|-------------------------------5-5-5---5-5-5--XX---------------------------|
D|--0h9-12-12-11-11-4-4----------5-5-5---5-5-5--XX---------------------------|

Chorus
e|---------------------------------------------------------------------------|
B|---------------------------------------------------------------------------|
G|---------------------------------------------------------------------------|
D|--9999999999-121212121212-5555555555555555555----10101010101010------------|
A|--9999999999-121212121212-5555555555555555555----10101010101010------------|
D|--9999999999-121212121212-5555555555555555555----10101010101010------------|

e|-----------------------------------------------------------------------------|
B|-----------------------------------------------------------------------------|
G|-----------------------------------------------------------------------------|
D|--9999999999-121212121212---5-5-5---5-5---10~--9~----------------------------|
A|--9999999999-121212121212---5-5-5---5-5---10~--9~----------------------------|
D|--9999999999-121212121212---5-5-5---5-5---10~--9~----------------------------|

Single strumming part: (1:49)
e|-----------------------------------|
B|-----------------------------------|
G|-----------------------------------|
D|--9------7------5------6-----------|
A|--9------7------5------6-----------|     2x
D|--9------7------5------6-----------|

e|--------------------------------------------------|
B|--------------------------------------------------|
G|--------------------------------------------------|
D|--9------7------5----55555555--44444444-----------|
A|--9------7------5----55555555--44444444-----------|
D|--9------7------5----55555555--44444444-----------|
                      ...................

e|---------------------------------------------------------------------------|
B|---------------------------------------------------------------------------|
G|---------------------------------------------------------------------------|
D|-5-5-5-4---555-55-4---5-5-5-4---555-55-4----5-5-5-4---555-55-4-------------|
A|-5-5-5-4---555-55-4---5-5-5-4---555-55-4----5-5-5-4---555-55-4-------------|
D|-5-5-5-4---555-55-4---5-5-5-4---555-55-4----5-5-5-4---555-55-4-------------|

e|---------------------------------------------------------------------------|
B|---------------------------------------------------------------------------|
G|---------------------------------------------------------------------------|
D|-5-5-5-4---555-55-4--55555555-\--------------------------------------------|
A|-5-5-5-4---555-55-4--55555555-\--------------------------------------------|
D|-5-5-5-4---555-55-4--55555555-\--------------------------------------------|


e|---------------------------------------------------------------------------|
B|---------------------------------------------------------------------------|
G|---------------------------------------------------------------------------|
D|--9999999999-121212121212-5555555555555555555----10101010101010------------|
A|--9999999999-121212121212-5555555555555555555----10101010101010------------|
D|--9999999999-121212121212-5555555555555555555----10101010101010------------|


e|---------------------------------------------------------------------------|
B|---------------------------------------------------------------------------|
G|---------------------------------------------------------------------------|
D|--9999999999-121212121212---5-5-5---5-5-5----------------------------------|
A|--9999999999-121212121212---5-5-5---5-5-5----------------------------------|
D|--9999999999-121212121212---5-5-5---5-5-5--------\\\pickscrape\\\----------|

e|---------------------------------------------------------------------------|
B|---------------------------------------------------------------------------|
G|---------------------------------------------------------------------------|
D|--9999999999-121212121212-5555555555555555555----5-5-5---------------------|
A|--9999999999-121212121212-5555555555555555555----5-5-5---------------------|
D|--9999999999-121212121212-5555555555555555555----5-5-5---------------------|
                                                   . . .

e|---------------------------------------------------------------------------|
B|---------------------------------------------------------------------------|
G|---------------------------------------------------------------------------|
D|--9999999999-121212121212---5-5-5---5-5-5-----5-5-5------------------------|
A|--9999999999-121212121212---5-5-5---5-5-5-----5-5-5------------------------|
D|--9999999999-121212121212---5-5-5---5-5-5-----5-5-5------------------------|

Riff 4x
End On
|-------|
|-------|
|--0-0--|
|--0-0--|
|--0-0--|
Tap to rate this tab
# A B C D E F G H I J K L M N O P Q R S T U V W X Y Z